  0
SECTION
  2
HEADER
  9
$ACADVER
  1
AC1015
  9
$ACADMAINTVER
 70
               6
  9
$DWGCODEPAGE
  3
ANSI_932
  9
$INSBASE
 10
0.0
 20
0.0
 30
0.0
  9
$EXTMIN
 10
-3354.1371813310743
 20
-897.71829369584304
 30
0.0
  9
$EXTMAX
 10
1321.8369282156414
 20
2451.1496640004393
 30
0.0
  9
$LIMMIN
 10
0.0
 20
0.0
  9
$LIMMAX
 10
0.0
 20
0.0
  9
$ORTHOMODE
 70
               0
  9
$REGENMODE
 70
               1
  9
$FILLMODE
 70
               1
  9
$QTEXTMODE
 70
               0
  9
$MIRRTEXT
 70
               1
  9
$LTSCALE
 40
101.59999999999999
  9
$ATTMODE
 70
               1
  9
$TEXTSIZE
 40
0.2
  9
$TRACEWID
 40
1.0
  9
$TEXTSTYLE
  7
Standard
  9
$CLAYER
  8
1
  9
$CELTYPE
  6
Continuous
  9
$CECOLOR
 62
             256
  9
$CELTSCALE
 40
1.0
  9
$DISPSILH
 70
               0
  9
$DIMSCALE
 40
1.0
  9
$DIMASZ
 40
0.18
  9
$DIMEXO
 40
0.0625
  9
$DIMDLI
 40
0.38
  9
$DIMRND
 40
0.0
  9
$DIMDLE
 40
0.0
  9
$DIMEXE
 40
0.18
  9
$DIMTP
 40
0.0
  9
$DIMTM
 40
0.0
  9
$DIMTXT
 40
0.18
  9
$DIMCEN
 40
0.09
  9
$DIMTSZ
 40
0.0
  9
$DIMTOL
 70
               0
  9
$DIMLIM
 70
               0
  9
$DIMTIH
 70
               1
  9
$DIMTOH
 70
               1
  9
$DIMSE1
 70
               0
  9
$DIMSE2
 70
               0
  9
$DIMTAD
 70
               0
  9
$DIMZIN
 70
               0
  9
$DIMBLK
  1

  9
$DIMASO
 70
               1
  9
$DIMSHO
 70
               1
  9
$DIMPOST
  1

  9
$DIMAPOST
  1

  9
$DIMALT
 70
               0
  9
$DIMALTD
 70
               2
  9
$DIMALTF
 40
25.399999999999999
  9
$DIMLFAC
 40
1.0
  9
$DIMTOFL
 70
               0
  9
$DIMTVP
 40
0.0
  9
$DIMTIX
 70
               0
  9
$DIMSOXD
 70
               0
  9
$DIMSAH
 70
               0
  9
$DIMBLK1
  1

  9
$DIMBLK2
  1

  9
$DIMSTYLE
  2
Standard
  9
$DIMCLRD
 70
               0
  9
$DIMCLRE
 70
               0
  9
$DIMCLRT
 70
               0
  9
$DIMTFAC
 40
1.0
  9
$DIMGAP
 40
0.09
  9
$DIMJUST
 70
               0
  9
$DIMSD1
 70
               0
  9
$DIMSD2
 70
               0
  9
$DIMTOLJ
 70
               1
  9
$DIMTZIN
 70
               0
  9
$DIMALTZ
 70
               0
  9
$DIMALTTZ
 70
               0
  9
$DIMUPT
 70
               0
  9
$DIMDEC
 70
               4
  9
$DIMTDEC
 70
               4
  9
$DIMALTU
 70
               2
  9
$DIMALTTD
 70
               2
  9
$DIMTXSTY
  7
Standard
  9
$DIMAUNIT
 70
               0
  9
$DIMADEC
 70
               0
  9
$DIMALTRND
 40
0.0
  9
$DIMAZIN
 70
               0
  9
$DIMDSEP
 70
               0
  9
$DIMATFIT
 70
               3
  9
$DIMFRAC
 70
               0
  9
$DIMLDRBLK
  1

  9
$DIMLUNIT
 70
               2
  9
$DIMLWD
 70
               0
  9
$DIMLWE
 70
               0
  9
$DIMTMOVE
 70
               0
  9
$LUNITS
 70
               2
  9
$LUPREC
 70
               4
  9
$SKETCHINC
 40
0.1
  9
$FILLETRAD
 40
0.0
  9
$AUNITS
 70
               0
  9
$AUPREC
 70
               0
  9
$MENU
  1
acad
  9
$ELEVATION
 40
0.0
  9
$PELEVATION
 40
0.0
  9
$THICKNESS
 40
0.0
  9
$LIMCHECK
 70
               0
  9
$CHAMFERA
 40
0.0
  9
$CHAMFERB
 40
0.0
  9
$CHAMFERC
 40
0.0
  9
$CHAMFERD
 40
0.0
  9
$SKPOLY
 70
               0
  9
$TDCREATE
 40
2456361.754733796
  9
$TDUCREATE
 40
0.000000000
  9
$TDUPDATE
 40
2456361.754733796
  9
$TDUUPDATE
 40
0.000000000
  9
$TDINDWG
 40
0.0000000000
  9
$TDUSRTIMER
 40
0.0000000000
  9
$USRTIMER
 70
               1
  9
$ANGBASE
 50
0.0
  9
$ANGDIR
 70
               0
  9
$PDMODE
 70
               1
  9
$PDSIZE
 40
-2.0
  9
$PLINEWID
 40
0.0
  9
$SPLFRAME
 70
               0
  9
$SPLINETYPE
 70
               6
  9
$SPLINESEGS
 70
               8
  9
$HANDSEED
  5
2D5
  9
$SURFTAB1
 70
               6
  9
$SURFTAB2
 70
               6
  9
$SURFTYPE
 70
               6
  9
$SURFU
 70
               6
  9
$SURFV
 70
               6
  9
$UCSBASE
  2

  9
$UCSNAME
  2

  9
$UCSORG
 10
0.0
 20
0.0
 30
0.0
  9
$UCSXDIR
 10
1.0
 20
0.0
 30
0.0
  9
$UCSYDIR
 10
0.0
 20
1.0
 30
0.0
  9
$UCSORTHOREF
  2

  9
$UCSORTHOVIEW
 70
               0
  9
$UCSORGTOP
 10
0.0
 20
0.0
 30
0.0
  9
$UCSORGBOTTOM
 10
0.0
 20
0.0
 30
0.0
  9
$UCSORGLEFT
 10
0.0
 20
0.0
 30
0.0
  9
$UCSORGRIGHT
 10
0.0
 20
0.0
 30
0.0
  9
$UCSORGFRONT
 10
0.0
 20
0.0
 30
0.0
  9
$UCSORGBACK
 10
0.0
 20
0.0
 30
0.0
  9
$PUCSBASE
  2

  9
$PUCSNAME
  2

  9
$PUCSORG
 10
0.0
 20
0.0
 30
0.0
  9
$PUCSXDIR
 10
1.0
 20
0.0
 30
0.0
  9
$PUCSYDIR
 10
0.0
 20
1.0
 30
0.0
  9
$PUCSORTHOREF
  2

  9
$PUCSORTHOVIEW
 70
               0
  9
$PUCSORGTOP
 10
0.0
 20
0.0
 30
0.0
  9
$PUCSORGBOTTOM
 10
0.0
 20
0.0
 30
0.0
  9
$PUCSORGLEFT
 10
0.0
 20
0.0
 30
0.0
  9
$PUCSORGRIGHT
 10
0.0
 20
0.0
 30
0.0
  9
$PUCSORGFRONT
 10
0.0
 20
0.0
 30
0.0
  9
$PUCSORGBACK
 10
0.0
 20
0.0
 30
0.0
  9
$USERI1
 70
               0
  9
$USERI2
 70
               0
  9
$USERI3
 70
               0
  9
$USERI4
 70
               0
  9
$USERI5
 70
               0
  9
$USERR1
 40
0.0
  9
$USERR2
 40
0.0
  9
$USERR3
 40
0.0
  9
$USERR4
 40
0.0
  9
$USERR5
 40
0.0
  9
$WORLDVIEW
 70
               1
  9
$SHADEDGE
 70
               3
  9
$SHADEDIF
 70
              70
  9
$TILEMODE
 70
               1
  9
$MAXACTVP
 70
              64
  9
$PINSBASE
 10
0.0
 20
0.0
 30
0.0
  9
$PLIMCHECK
 70
               0
  9
$PEXTMIN
 10
1.0000000000000000E+20
 20
1.0000000000000000E+20
 30
1.0000000000000000E+20
  9
$PEXTMAX
 10
-1.0000000000000000E+20
 20
-1.0000000000000000E+20
 30
-1.0000000000000000E+20
  9
$PLIMMIN
 10
0.0
 20
0.0
  9
$PLIMMAX
 10
12.0
 20
9.0
  9
$UNITMODE
 70
               0
  9
$VISRETAIN
 70
               0
  9
$PLINEGEN
 70
               1
  9
$PSLTSCALE
 70
               0
  9
$TREEDEPTH
 70
            3020
  9
$CMLSTYLE
  2
Standard
  9
$CMLJUST
 70
               0
  9
$CMLSCALE
 40
1.0
  9
$PROXYGRAPHICS
 70
               0
  9
$MEASUREMENT
 70
               1
  9
$CELWEIGHT
370
               0
  9
$ENDCAPS
280
               0
  9
$JOINSTYLE
280
               0
  9
$LWDISPLAY
290
               1
  9
$INSUNITS
 70
               4
  9
$HYPERLINKBASE
  1

  9
$STYLESHEET
  1

  9
$XEDIT
290
               1
  9
$CEPSNTYPE
380
               0
  9
$PSTYLEMODE
290
               1
  9
$FINGERPRINTGUID
  2

  9
$VERSIONGUID
  2

  9
$EXTNAMES
290
               1
  9
$PSVPSCALE
 40
0.0
  0
ENDSEC
  0
SECTION
  2
CLASSES
  0
CLASS
  1
LWPOLYLINE
  2
AcDbPolyline
  3
AutoCAD 2000
 90
        0
280
               0
281
               1
  0
CLASS
  1
IMAGE
  2
AcDbRasterImage
  3
ISM
 90
      127
280
               0
281
               1
  0
CLASS
  1
OLE2FRAME
  2
AcDbOle2Frame
  3
AutoCAD 2000
 90
        0
280
               0
281
               1
  0
CLASS
  1
HATCH
  2
AcDbHatch
  3
AutoCAD 2000
 90
        0
280
               0
281
               1
  0
CLASS
  1
DICTIONARYVAR
  2
AcDbDictionaryVar
  3
AutoCAD 2000
 90
        0
280
               0
281
               0
  0
CLASS
  1
RASTERVARIABLES
  2
AcDbRasterVariables
  3
ISM
 90
        0
280
               0
281
               0
  0
CLASS
  1
IMAGEDEF
  2
AcDbRasterImageDef
  3
ISM
 90
        0
280
               0
281
               0
  0
CLASS
  1
IMAGEDEF_REACTOR
  2
AcDbRasterImageDefReactor
  3
ISM
 90
        1
280
               0
281
               0
  0
CLASS
  1
IDBUFFER
  2
AcDbIdBuffer
  3
AutoCAD 2000
 90
        0
280
               0
281
               0
  0
CLASS
  1
SPATIAL_FILTER
  2
AcDbSpatialFilter
  3
AutoCAD 2000
 90
        0
280
               0
281
               0
  0
CLASS
  1
XRECORD
  2
AcDbXrecord
  3
AutoCAD 2000
 90
        0
280
               0
281
               0
  0
CLASS
  1
SORTENTSTABLE
  2
AcDbSortentsTable
  3
AutoCAD 2000
 90
        0
280
               0
281
               0
  0
CLASS
  1
LAYER_INDEX
  2
AcDbLayerIndex
  3
AutoCAD 2000
 90
        0
280
               0
281
               0
  0
CLASS
  1
SPATIAL_INDEX
  2
AcDbSpatialIndex
  3
AutoCAD 2000
 90
        0
280
               0
281
               0
  0
CLASS
  1
OBJECT_PTR
  2
CAseDLPNTableRecord
  3
"ASE-LPNTableRecord"
 90
        1
280
               0
281
               0
  0
CLASS
  1
LAYOUT
  2
AcDbLayout
  3
AutoCAD 2000
 90
        0
280
               0
281
               0
  0
CLASS
  1
PLOTSETTINGS
  2
AcDbPlotSettings
  3
AutoCAD 2000
 90
        0
280
               0
281
               0
  0
CLASS
  1
ACDBDICTIONARYWDFLT
  2
AcDbDictionaryWithDefault
  3
AutoCAD 2000
 90
        0
280
               0
281
               0
  0
CLASS
  1
ACDBPLACEHOLDER
  2
AcDbPlaceHolder
  3
AutoCAD 2000
 90
        0
280
               0
281
               0
  0
CLASS
  1
VBA_PROJECT
  2
AcDbVbaProject
  3
acadvba
 90
        0
280
               0
281
               0
  0
CLASS
  1
WIPEOUT
  2
AcDbWipeout
  3
WipeOut|AutoCAD Express Tool|expresstools@autodesk.com
 90
      127
280
               0
281
               1
  0
CLASS
  1
WIPEOUTVARIABLES
  2
AcDbWipeoutVariables
  3
WipeOut|AutoCAD Express Tool|expresstools@autodesk.com
 90
        0
280
               0
281
               0
  0
CLASS
  1
RTEXT
  2
RText
  3
RText|AutoCAD Express Tool|expresstools@autodesk.com
 90
        0
280
               0
281
               1
  0
CLASS
  1
ARCALIGNEDTEXT
  2
AcDbArcAlignedText
  3
ATEXT|AutoCAD Express Tool|expresstools@autodesk.com
 90
        0
280
               0
281
               1
  0
ENDSEC
  0
SECTION
  2
TABLES
  0
TABLE
  2
VPORT
  5
7
100
AcDbSymbolTable
 70
               1
  0
VPORT
  5
15
100
AcDbSymbolTableRecord
100
AcDbViewportTableRecord
  2
*ACTIVE
 70
               0
 10
0.0
 20
0.0
 11
1.0
 21
1.0
 12
-1016.1501265577162
 22
776.71568515229808
 13
0.0
 23
0.0
 14
1.0
 24
1.0
 15
0.0
 25
0.0
 16
0.0
 26
0.0
 36
1.0
 17
0.0
 27
0.0
 37
0.0
 40
3348.8679576962822
 41
0.688564
 42
50.0
 43
0.0
 44
0.0
 50
0.0
 51
0.0
 71
               0
 72
            2000
 73
               1
 74
               1
 75
               0
 76
               0
 77
               0
 78
               0
281
               0
 65
               0
110
0.0
120
0.0
130
0.0
111
1.0
121
0.0
131
0.0
112
0.0
122
1.0
132
0.0
345
0
346
0
 79
               0
146
0.0
  0
ENDTAB
  0
TABLE
  2
LTYPE
  5
4
100
AcDbSymbolTable
 70
              18
  0
LTYPE
  5
11
100
AcDbSymbolTableRecord
100
AcDbLinetypeTableRecord
  2
ByBlock
 70
              64
  3

 72
              65
 73
               0
 40
0.0
  0
LTYPE
  5
12
100
AcDbSymbolTableRecord
100
AcDbLinetypeTableRecord
  2
ByLayer
 70
              64
  3

 72
              65
 73
               0
 40
0.0
  0
LTYPE
  5
13
100
AcDbSymbolTableRecord
100
AcDbLinetypeTableRecord
  2
Continuous
 70
              64
  3
Solid line
 72
              65
 73
               0
 40
0.0
  0
LTYPE
  5
26
100
AcDbSymbolTableRecord
100
AcDbLinetypeTableRecord
  2
STYLE_01
 70
               0
  3

 72
              65
 73
               2
 40
0.4166412353515625
 49
0.208282470703125
 74
               0
 49
-0.2083587646484375
 74
               0
  0
LTYPE
  5
27
100
AcDbSymbolTableRecord
100
AcDbLinetypeTableRecord
  2
STYLE_02
 70
               0
  3

 72
              65
 73
               2
 40
0.694427490234375
 49
0.4860687255859375
 74
               0
 49
-0.2083587646484375
 74
               0
  0
LTYPE
  5
28
100
AcDbSymbolTableRecord
100
AcDbLinetypeTableRecord
  2
STYLE_03
 70
               0
  3

 72
              65
 73
               2
 40
1.25
 49
1.0416412353515625
 74
               0
 49
-0.2083587646484375
 74
               0
  0
LTYPE
  5
29
100
AcDbSymbolTableRecord
100
AcDbLinetypeTableRecord
  2
STYLE_04
 70
               0
  3

 72
              65
 73
               2
 40
1.5277099609375
 49
1.319427490234375
 74
               0
 49
-0.208282470703125
 74
               0
  0
LTYPE
  5
2A
100
AcDbSymbolTableRecord
100
AcDbLinetypeTableRecord
  2
STYLE_05
 70
               0
  3

 72
              65
 73
               2
 40
0.208282470703125
 49
0.069427490234375
 74
               0
 49
-0.13885498046875
 74
               0
  0
LTYPE
  5
2B
100
AcDbSymbolTableRecord
100
AcDbLinetypeTableRecord
  2
STYLE_06
 70
               0
  3

 72
              65
 73
               4
 40
1.0416412353515625
 49
0.625
 74
               0
 49
-0.208282470703125
 74
               0
 49
0.069427490234375
 74
               0
 49
-0.1389312744140625
 74
               0
  0
LTYPE
  5
2C
100
AcDbSymbolTableRecord
100
AcDbLinetypeTableRecord
  2
STYLE_07
 70
               0
  3

 72
              65
 73
               6
 40
1.875
 49
0.625
 74
               0
 49
-0.208282470703125
 74
               0
 49
0.625
 74
               0
 49
-0.2083587646484375
 74
               0
 49
0.069427490234375
 74
               0
 49
-0.1389312744140625
 74
               0
  0
LTYPE
  5
2D
100
AcDbSymbolTableRecord
100
AcDbLinetypeTableRecord
  2
STYLE_08
 70
               0
  3

 72
              65
 73
               6
 40
1.25
 49
0.625
 74
               0
 49
-0.208282470703125
 74
               0
 49
0.069427490234375
 74
               0
 49
-0.1389312744140625
 74
               0
 49
0.069427490234375
 74
               0
 49
-0.1389312744140625
 74
               0
  0
LTYPE
  5
2E
100
AcDbSymbolTableRecord
100
AcDbLinetypeTableRecord
  2
STYLE_09
 70
               0
  3

 72
              65
 73
               4
 40
5.0
 49
3.75
 74
               0
 49
-0.2777862548828125
 74
               0
 49
0.694427490234375
 74
               0
 49
-0.2777862548828125
 74
               0
  0
LTYPE
  5
2F
100
AcDbSymbolTableRecord
100
AcDbLinetypeTableRecord
  2
STYLE_10
 70
               0
  3

 72
              65
 73
               6
 40
5.9375
 49
3.75
 74
               0
 49
-0.2777862548828125
 74
               0
 49
0.694427490234375
 74
               0
 49
-0.2777862548828125
 74
               0
 49
0.625
 74
               0
 49
-0.3125
 74
               0
  0
LTYPE
  5
30
100
AcDbSymbolTableRecord
100
AcDbLinetypeTableRecord
  2
STYLE_11
 70
               0
  3

 72
              65
 73
               2
 40
0.13885498046875
 49
0.069427490234375
 74
               0
 49
-0.069427490234375
 74
               0
  0
LTYPE
  5
31
100
AcDbSymbolTableRecord
100
AcDbLinetypeTableRecord
  2
STYLE_12
 70
               0
  3

 72
              65
 73
               6
 40
0.0098425196850394
 49
0.0049591064453125
 74
               0
 49
-0.0009918212890625
 74
               0
 49
0.0009918212890625
 74
               0
 49
-0.0009918212890625
 74
               0
 49
0.0009918212890625
 74
               0
 49
-0.0009918212890625
 74
               0
  0
LTYPE
  5
32
100
AcDbSymbolTableRecord
100
AcDbLinetypeTableRecord
  2
STYLE_13
 70
               0
  3

 72
              65
 73
               2
 40
0.2777862548828125
 49
0.2083587646484375
 74
               0
 49
-0.069427490234375
 74
               0
  0
LTYPE
  5
33
100
AcDbSymbolTableRecord
100
AcDbLinetypeTableRecord
  2
STYLE_14
 70
               0
  3

 72
              65
 73
               2
 40
0.3472137451171875
 49
0.208282470703125
 74
               0
 49
-0.1389312744140625
 74
               0
  0
LTYPE
  5
34
100
AcDbSymbolTableRecord
100
AcDbLinetypeTableRecord
  2
STYLE_15
 70
               0
  3

 72
              65
 73
               2
 40
0.2777099609375
 49
0.208282470703125
 74
               0
 49
-0.069427490234375
 74
               0
  0
ENDTAB
  0
TABLE
  2
LAYER
  5
2
100
AcDbSymbolTable
 70
               6
  0
LAYER
  5
14
100
AcDbSymbolTableRecord
100
AcDbLayerTableRecord
  2
0
 70
               0
 62
               7
  6
Continuous
290
               1
370
              18
390
1D
  0
LAYER
  5
35
100
AcDbSymbolTableRecord
100
AcDbLayerTableRecord
  2
一般
 70
               0
 62
               7
  6
Continuous
290
               1
370
               5
390
1D
  0
LAYER
  5
36
100
AcDbSymbolTableRecord
100
AcDbLayerTableRecord
  2
2
 70
               0
 62
               7
  6
Continuous
290
               1
370
               5
390
1D
  0
LAYER
  5
37
100
AcDbSymbolTableRecord
100
AcDbLayerTableRecord
  2
3
 70
               0
 62
               7
  6
Continuous
290
               1
370
               5
390
1D
  0
LAYER
  5
38
100
AcDbSymbolTableRecord
100
AcDbLayerTableRecord
  2
寸法
 70
               0
 62
               7
  6
Continuous
290
               1
370
               5
390
1D
  0
LAYER
  5
39
100
AcDbSymbolTableRecord
100
AcDbLayerTableRecord
  2
1
 70
               0
 62
               7
  6
Continuous
290
               1
370
              15
390
1D
  0
ENDTAB
  0
TABLE
  2
STYLE
  5
3
100
AcDbSymbolTable
 70
               3
  0
STYLE
  5
17
100
AcDbSymbolTableRecord
100
AcDbTextStyleTableRecord
  2
Standard
 70
               0
 40
0.0
 41
1.0
 50
0.0
 71
               0
 42
0.0
  3
txt
  4
BIGFONT.SHX
  0
STYLE
  5
24
100
AcDbSymbolTableRecord
100
AcDbTextStyleTableRecord
  2
Arial
 70
               0
 40
0.0
 41
1.0
 50
0.0
 71
               0
 42
0.0
  3

  4
Arial
1001
ACAD
1000
Arial
1071
        0
  0
STYLE
  5
25
100
AcDbSymbolTableRecord
100
AcDbTextStyleTableRecord
  2
Arial (bold)
 70
               0
 40
0.0
 41
1.0
 50
0.0
 71
               0
 42
0.0
  3

  4
Arial
1001
ACAD
1000
Arial
1071
 33554432
  0
ENDTAB
  0
TABLE
  2
VIEW
  5
5
100
AcDbSymbolTable
 70
               0
  0
ENDTAB
  0
TABLE
  2
UCS
  5
6
100
AcDbSymbolTable
 70
               0
  0
ENDTAB
  0
TABLE
  2
APPID
  5
8
100
AcDbSymbolTable
 70
               1
  0
APPID
  5
16
100
AcDbSymbolTableRecord
100
AcDbRegAppTableRecord
  2
ACAD
 70
               0
  0
ENDTAB
  0
TABLE
  2
DIMSTYLE
  5
9
100
AcDbSymbolTable
 70
               1
100
AcDbDimStyleTable
 71
               0
  0
DIMSTYLE
105
18
100
AcDbSymbolTableRecord
100
AcDbDimStyleTableRecord
  2
Standard
 70
               0
  3

  4

 40
1.0
 41
0.18
 42
0.0625
 43
0.38
 44
0.18
 45
0.0
 46
0.0
 47
0.0
 48
0.0
 71
               0
 72
               0
 73
               1
 74
               1
 75
               0
 76
               0
 77
               0
 78
               0
 79
               0
140
0.18
141
0.09
142
0.0
143
25.399999999999999
144
1.0
145
0.0
146
1.0
147
0.09
148
0.0
170
               0
171
               2
172
               0
173
               0
174
               0
175
               0
176
               0
177
               0
178
               0
179
               0
271
               4
272
               4
273
               2
274
               2
275
               0
276
               0
277
               2
278
              46
279
               0
280
               0
281
               0
282
               0
283
               1
284
               0
285
               0
286
               0
288
               0
289
               3
340
17
341
0
342
0
343
0
344
0
371
              -2
372
              -2
  0
ENDTAB
  0
TABLE
  2
BLOCK_RECORD
  5
1
100
AcDbSymbolTable
 70
               0
  0
BLOCK_RECORD
  5
A
100
AcDbSymbolTableRecord
100
AcDbBlockTableRecord
  2
*MODEL_SPACE
340
20
  0
BLOCK_RECORD
  5
B
100
AcDbSymbolTableRecord
100
AcDbBlockTableRecord
  2
*PAPER_SPACE
340
21
  0
ENDTAB
  0
ENDSEC
  0
SECTION
  2
BLOCKS
  0
BLOCK
  5
D
100
AcDbEntity
  8
0
390
0
100
AcDbBlockBegin
  2
*MODEL_SPACE
 70
               0
 10
0.0
 20
0.0
 30
0.0
  3
*MODEL_SPACE
  1

  0
ENDBLK
  5
E
100
AcDbEntity
  8
0
390
0
100
AcDbBlockEnd
  0
BLOCK
  5
F
100
AcDbEntity
 67
               1
  8
0
390
0
100
AcDbBlockBegin
  2
*PAPER_SPACE
 70
               0
 10
0.0
 20
0.0
 30
0.0
  3
*PAPER_SPACE
  1

  0
ENDBLK
  5
10
100
AcDbEntity
 67
               1
  8
0
390
0
100
AcDbBlockEnd
  0
ENDSEC
  0
SECTION
  2
ENTITIES
  0
WIPEOUT
  5
3A
100
AcDbEntity
  8
1
370
               5
390
0
  6
Continuous
 62
               7
 92
        0
100
AcDbWipeout
 90
        0
 10
385.83379472809133
 20
2173.2014668857141
 30
0.0
 11
550.49869791666674
 21
0.0
 31
0.0
 12
0.0
 22
550.49869791666674
 32
0.0
 13
1.0
 23
1.0
340
0
 70
               7
280
               1
281
              50
282
              50
283
               0
360
0
 71
               2
 91
        5
 14
-0.5
 24
0.5
 14
0.5
 24
0.5
 14
0.5
 24
0.3231300690898166
 14
-0.5
 24
0.3231300690898166
 14
-0.5
 24
0.5
  0
MTEXT
  5
3B
100
AcDbEntity
  8
1
390
0
 62
               7
100
AcDbMText
 10
385.83379472809133
 20
2255.0018141079363
 30
0.0
 40
60.633680555555543
 41
0.0
 71
               1
 72
               1
  1
N.TEC,Co.Ltd.
  7
Arial
 73
               1
 44
0.9673603504928806
  0
MTEXT
  5
3C
100
AcDbEntity
  8
2
390
0
 62
               7
100
AcDbMText
 10
371.36264436147508
 20
2433.0433445559947
 30
0.0
 40
60.633680555555543
 41
0.0
 71
               1
 72
               1
  1
GAGGENAU  RC462700
  7
Arial (bold)
 73
               1
 44
0.992595837897043
  0
LINE
  5
3D
100
AcDbEntity
  8
一般
370
              18
390
0
  6
Continuous
 62
               7
100
AcDbLine
 10
-1733.6982017931996
 20
-623.8106422638283
 30
0.0
 11
-1733.6982017931996
 21
-718.81064226382784
 31
0.0
  0
LINE
  5
3E
100
AcDbEntity
  8
一般
370
              18
390
0
  6
Continuous
 62
               7
100
AcDbLine
 10
-1759.7572054867414
 20
-718.86745693456407
 30
0.0
 11
-1759.7572054867414
 21
-798.86745693456407
 31
0.0
  0
LINE
  5
3F
100
AcDbEntity
  8
一般
370
              18
390
0
  6
Continuous
 62
               7
100
AcDbLine
 10
-1782.8833964080377
 20
-798.95269210417553
 30
0.0
 11
-1782.8833964080377
 21
-873.95269210417553
 31
0.0
  0
LINE
  5
40
100
AcDbEntity
  8
一般
370
               5
390
0
  6
Continuous
 62
               7
100
AcDbLine
 10
-3353.4999914094815
 20
1672.3257257403955
 30
0.0
 11
-2751.4999914094815
 21
1672.3257257403955
 31
0.0
  0
POLYLINE
  5
41
100
AcDbEntity
  8
一般
370
              18
390
0
  6
Continuous
 62
               7
100
AcDb2dPolyline
 66
               1
 10
0.0
 20
0.0
 30
0.0
 70
               1
 75
               5
  0
VERTEX
  5
42
100
AcDbEntity
  8
一般
370
              18
390
0
  6
Continuous
 62
               7
100
AcDbVertex
100
AcDb2dVertex
 10
-3354.1262053794335
 20
2280.3386660410224
 30
0.0
  0
VERTEX
  5
43
100
AcDbEntity
  8
一般
370
              18
390
0
  6
Continuous
 62
               7
100
AcDbVertex
100
AcDb2dVertex
 10
-2751.1262053794335
 20
2280.3386660410224
 30
0.0
  0
VERTEX
  5
44
100
AcDbEntity
  8
一般
370
              18
390
0
  6
Continuous
 62
               7
100
AcDbVertex
100
AcDb2dVertex
 10
-2751.1262053794335
 20
1725.3386660410345
 30
0.0
  0
VERTEX
  5
45
100
AcDbEntity
  8
一般
370
              18
390
0
  6
Continuous
 62
               7
100
AcDbVertex
100
AcDb2dVertex
 10
-3354.1262053794335
 20
1725.3386660410345
 30
0.0
  0
SEQEND
  5
46
100
AcDbEntity
  8
一般
370
              18
390
0
  6
Continuous
 62
               7
  0
POLYLINE
  5
48
100
AcDbEntity
  8
一般
370
              15
390
0
  6
Continuous
 62
               7
100
AcDb2dPolyline
 66
               1
 10
0.0
 20
0.0
 30
0.0
 70
               1
 75
               5
  0
VERTEX
  5
49
100
AcDbEntity
  8
一般
370
              15
390
0
  6
Continuous
 62
               7
100
AcDbVertex
100
AcDb2dVertex
 10
-3351.0686531965512
 20
1725.3434434513886
 30
0.0
  0
VERTEX
  5
4A
100
AcDbEntity
  8
一般
370
              15
390
0
  6
Continuous
 62
               7
100
AcDbVertex
100
AcDb2dVertex
 10
-2753.4999914094815
 20
1725.3434434513886
 30
0.0
  0
VERTEX
  5
4B
100
AcDbEntity
  8
一般
370
              15
390
0
  6
Continuous
 62
               7
100
AcDbVertex
100
AcDb2dVertex
 10
-2753.4999914094815
 20
1704.343443451389
 30
0.0
  0
VERTEX
  5
4C
100
AcDbEntity
  8
一般
370
              15
390
0
  6
Continuous
 62
               7
100
AcDbVertex
100
AcDb2dVertex
 10
-3351.0686531965512
 20
1704.343443451389
 30
0.0
  0
SEQEND
  5
4D
100
AcDbEntity
  8
一般
370
              15
390
0
  6
Continuous
 62
               7
  0
POLYLINE
  5
4F
100
AcDbEntity
  8
一般
370
              15
390
0
  6
Continuous
 62
               7
100
AcDb2dPolyline
 66
               1
 10
0.0
 20
0.0
 30
0.0
 70
               1
 75
               5
  0
VERTEX
  5
50
100
AcDbEntity
  8
一般
370
              15
390
0
  6
Continuous
 62
               7
100
AcDbVertex
100
AcDb2dVertex
 10
-3351.0686531965512
 20
1704.343443451389
 30
0.0
  0
VERTEX
  5
51
100
AcDbEntity
  8
一般
370
              15
390
0
  6
Continuous
 62
               7
100
AcDbVertex
100
AcDb2dVertex
 10
-2753.4999914094815
 20
1704.343443451389
 30
0.0
  0
VERTEX
  5
52
100
AcDbEntity
  8
一般
370
              15
390
0
  6
Continuous
 62
               7
100
AcDbVertex
100
AcDb2dVertex
 10
-2753.4999914094815
 20
1674.3434434513895
 30
0.0
  0
VERTEX
  5
53
100
AcDbEntity
  8
一般
370
              15
390
0
  6
Continuous
 62
               7
100
AcDbVertex
100
AcDb2dVertex
 10
-3351.0686531965512
 20
1674.3434434513895
 30
0.0
  0
SEQEND
  5
54
100
AcDbEntity
  8
一般
370
              15
390
0
  6
Continuous
 62
               7
  0
POLYLINE
  5
56
100
AcDbEntity
  8
一般
370
              18
390
0
  6
Continuous
 62
               7
100
AcDb2dPolyline
 66
               1
 10
0.0
 20
0.0
 30
0.0
 70
               1
 75
               5
  0
VERTEX
  5
57
100
AcDbEntity
  8
一般
370
              18
390
0
  6
Continuous
 62
               7
100
AcDbVertex
100
AcDb2dVertex
 10
-3354.1262053794335
 20
1227.2363252664186
 30
0.0
  0
VERTEX
  5
58
100
AcDbEntity
  8
一般
370
              18
390
0
  6
Continuous
 62
               7
100
AcDbVertex
100
AcDb2dVertex
 10
-2751.1262053794335
 20
1227.2363252664186
 30
0.0
  0
VERTEX
  5
59
100
AcDbEntity
  8
一般
370
              18
390
0
  6
Continuous
 62
               7
100
AcDbVertex
100
AcDb2dVertex
 10
-2751.1262053794335
 20
-873.7636747335813
 30
0.0
  0
VERTEX
  5
5A
100
AcDbEntity
  8
一般
370
              18
390
0
  6
Continuous
 62
               7
100
AcDbVertex
100
AcDb2dVertex
 10
-3354.1262053794335
 20
-873.7636747335813
 30
0.0
  0
SEQEND
  5
5B
100
AcDbEntity
  8
一般
370
              18
390
0
  6
Continuous
 62
               7
  0
LINE
  5
5D
100
AcDbEntity
  8
一般
370
              18
390
0
  6
Continuous
 62
               7
100
AcDbLine
 10
-2285.6942440740427
 20
-623.78874134441287
 30
0.0
 11
-1730.6942440740427
 21
-623.78874134441287
 31
0.0
  0
LINE
  5
5E
100
AcDbEntity
  8
一般
370
              18
390
0
  6
Continuous
 62
               7
100
AcDbLine
 10
-3354.0872190117025
 20
-623.78874134441287
 30
0.0
 11
-2751.0872190117025
 21
-623.78874134441287
 31
0.0
  0
LINE
  5
5F
100
AcDbEntity
  8
一般
370
              18
390
0
  6
Continuous
 62
               7
100
AcDbLine
 10
-3354.0872190117025
 20
-718.78874134441241
 30
0.0
 11
-2751.0872190117025
 21
-718.78874134441241
 31
0.0
  0
LINE
  5
60
100
AcDbEntity
  8
一般
370
              18
390
0
  6
Continuous
 62
               7
100
AcDbLine
 10
-3354.0872190117025
 20
-798.78874134441241
 30
0.0
 11
-2751.0872190117025
 21
-798.78874134441241
 31
0.0
  0
POLYLINE
  5
61
100
AcDbEntity
  8
寸法
370
              15
390
0
  6
Continuous
 62
               7
100
AcDb2dPolyline
 66
               1
 10
0.0
 20
0.0
 30
0.0
 70
               1
 75
               5
  0
VERTEX
  5
62
100
AcDbEntity
  8
寸法
370
              15
390
0
  6
Continuous
 62
               7
100
AcDbVertex
100
AcDb2dVertex
 10
-3341.1108791151873
 20
-894.20469296431236
 30
0.0
  0
VERTEX
  5
63
100
AcDbEntity
  8
寸法
370
              15
390
0
  6
Continuous
 62
               7
100
AcDbVertex
100
AcDb2dVertex
 10
-3311.1108791151873
 20
-894.20469296431236
 30
0.0
  0
VERTEX
  5
64
100
AcDbEntity
  8
寸法
370
              15
390
0
  6
Continuous
 62
               7
100
AcDbVertex
100
AcDb2dVertex
 10
-3311.1108791151873
 20
-897.70469296431236
 30
0.0
  0
VERTEX
  5
65
100
AcDbEntity
  8
寸法
370
              15
390
0
  6
Continuous
 62
               7
100
AcDbVertex
100
AcDb2dVertex
 10
-3341.1108791151873
 20
-897.70469296431236
 30
0.0
  0
SEQEND
  5
66
100
AcDbEntity
  8
寸法
370
              15
390
0
  6
Continuous
 62
               7
  0
WIPEOUT
  5
68
100
AcDbEntity
  8
寸法
370
              15
390
0
  6
Continuous
 62
               7
 92
        0
100
AcDbWipeout
 90
        0
 10
-3332.7684003569548
 20
-894.20469296431236
 30
0.0
 11
20.471841620039868
 21
0.0
 31
0.0
 12
0.0
 22
20.471841620039868
 32
0.0
 13
1.0
 23
1.0
340
0
 70
               7
280
               1
281
              50
282
              50
283
               0
360
0
 71
               2
 91
        5
 14
-0.5
 24
-0.5
 14
0.1350185899872491
 24
-0.5
 14
0.1350185899872491
 24
0.5
 14
-0.5
 24
0.5
 14
-0.5
 24
-0.5
  0
POLYLINE
  5
69
100
AcDbEntity
  8
寸法
370
              15
390
0
  6
Continuous
 62
               7
100
AcDb2dPolyline
 66
               1
 10
0.0
 20
0.0
 30
0.0
 70
               1
 75
               5
  0
VERTEX
  5
6A
100
AcDbEntity
  8
寸法
370
              15
390
0
  6
Continuous
 62
               7
100
AcDbVertex
100
AcDb2dVertex
 10
-3332.7684003569548
 20
-873.73285134427249
 30
0.0
  0
VERTEX
  5
6B
100
AcDbEntity
  8
寸法
370
              15
390
0
  6
Continuous
 62
               7
100
AcDbVertex
100
AcDb2dVertex
 10
-3319.7684003569548
 20
-873.73285134427249
 30
0.0
  0
VERTEX
  5
6C
100
AcDbEntity
  8
寸法
370
              15
390
0
  6
Continuous
 62
               7
100
AcDbVertex
100
AcDb2dVertex
 10
-3319.7684003569548
 20
-894.20469296431236
 30
0.0
  0
VERTEX
  5
6D
100
AcDbEntity
  8
寸法
370
              15
390
0
  6
Continuous
 62
               7
100
AcDbVertex
100
AcDb2dVertex
 10
-3332.7684003569548
 20
-894.20469296431236
 30
0.0
  0
SEQEND
  5
6E
100
AcDbEntity
  8
寸法
370
              15
390
0
  6
Continuous
 62
               7
  0
POLYLINE
  5
70
100
AcDbEntity
  8
寸法
370
              15
390
0
  6
Continuous
 62
               7
100
AcDb2dPolyline
 66
               1
 10
0.0
 20
0.0
 30
0.0
 70
               1
 75
               5
  0
VERTEX
  5
71
100
AcDbEntity
  8
寸法
370
              15
390
0
  6
Continuous
 62
               7
100
AcDbVertex
100
AcDb2dVertex
 10
-2794.0501567332967
 20
-894.20469296431236
 30
0.0
  0
VERTEX
  5
72
100
AcDbEntity
  8
寸法
370
              15
390
0
  6
Continuous
 62
               7
100
AcDbVertex
100
AcDb2dVertex
 10
-2764.0501567332967
 20
-894.20469296431236
 30
0.0
  0
VERTEX
  5
73
100
AcDbEntity
  8
寸法
370
              15
390
0
  6
Continuous
 62
               7
100
AcDbVertex
100
AcDb2dVertex
 10
-2764.0501567332967
 20
-897.70469296431236
 30
0.0
  0
VERTEX
  5
74
100
AcDbEntity
  8
寸法
370
              15
390
0
  6
Continuous
 62
               7
100
AcDbVertex
100
AcDb2dVertex
 10
-2794.0501567332967
 20
-897.70469296431236
 30
0.0
  0
SEQEND
  5
75
100
AcDbEntity
  8
寸法
370
              15
390
0
  6
Continuous
 62
               7
  0
WIPEOUT
  5
77
100
AcDbEntity
  8
寸法
370
              15
390
0
  6
Continuous
 62
               7
 92
        0
100
AcDbWipeout
 90
        0
 10
-2785.7076779750641
 20
-894.20469296431236
 30
0.0
 11
20.471841620039868
 21
0.0
 31
0.0
 12
0.0
 22
20.471841620039868
 32
0.0
 13
1.0
 23
1.0
340
0
 70
               7
280
               1
281
              50
282
              50
283
               0
360
0
 71
               2
 91
        5
 14
-0.5
 24
-0.5
 14
0.1350185899872491
 24
-0.5
 14
0.1350185899872491
 24
0.5
 14
-0.5
 24
0.5
 14
-0.5
 24
-0.5
  0
POLYLINE
  5
78
100
AcDbEntity
  8
寸法
370
              15
390
0
  6
Continuous
 62
               7
100
AcDb2dPolyline
 66
               1
 10
0.0
 20
0.0
 30
0.0
 70
               1
 75
               5
  0
VERTEX
  5
79
100
AcDbEntity
  8
寸法
370
              15
390
0
  6
Continuous
 62
               7
100
AcDbVertex
100
AcDb2dVertex
 10
-2785.7076779750641
 20
-873.73285134427249
 30
0.0
  0
VERTEX
  5
7A
100
AcDbEntity
  8
寸法
370
              15
390
0
  6
Continuous
 62
               7
100
AcDbVertex
100
AcDb2dVertex
 10
-2772.7076779750641
 20
-873.73285134427249
 30
0.0
  0
VERTEX
  5
7B
100
AcDbEntity
  8
寸法
370
              15
390
0
  6
Continuous
 62
               7
100
AcDbVertex
100
AcDb2dVertex
 10
-2772.7076779750641
 20
-894.20469296431236
 30
0.0
  0
VERTEX
  5
7C
100
AcDbEntity
  8
寸法
370
              15
390
0
  6
Continuous
 62
               7
100
AcDbVertex
100
AcDb2dVertex
 10
-2785.7076779750641
 20
-894.20469296431236
 30
0.0
  0
SEQEND
  5
7D
100
AcDbEntity
  8
寸法
370
              15
390
0
  6
Continuous
 62
               7
  0
POLYLINE
  5
7F
100
AcDbEntity
  8
一般
370
              18
390
0
  6
Continuous
 62
               7
100
AcDb2dPolyline
 66
               1
 10
0.0
 20
0.0
 30
0.0
 70
               1
 75
               5
  0
VERTEX
  5
80
100
AcDbEntity
  8
一般
370
              18
390
0
  6
Continuous
 62
               7
100
AcDbVertex
100
AcDb2dVertex
 10
-3354.1371813310743
 20
1147.2094279290027
 30
0.0
  0
VERTEX
  5
81
100
AcDbEntity
  8
一般
370
              18
390
0
  6
Continuous
 62
               7
100
AcDbVertex
100
AcDb2dVertex
 10
-2751.1371813310743
 20
1147.2094279290027
 30
0.0
  0
VERTEX
  5
82
100
AcDbEntity
  8
一般
370
              18
390
0
  6
Continuous
 62
               7
100
AcDbVertex
100
AcDb2dVertex
 10
-2751.1371813310743
 20
-622.7905720709972
 30
0.0
  0
VERTEX
  5
83
100
AcDbEntity
  8
一般
370
              18
390
0
  6
Continuous
 62
               7
100
AcDbVertex
100
AcDb2dVertex
 10
-3354.1371813310743
 20
-622.7905720709972
 30
0.0
  0
SEQEND
  5
84
100
AcDbEntity
  8
一般
370
              18
390
0
  6
Continuous
 62
               7
  0
LINE
  5
86
100
AcDbEntity
  8
一般
370
               5
390
0
  6
STYLE_06
 62
               7
100
AcDbLine
 10
-3354.0999914094809
 20
1146.9020509625122
 30
0.0
 11
-2751.2999914094817
 21
262.10205096251451
 31
0.0
  0
LINE
  5
87
100
AcDbEntity
  8
一般
370
               5
390
0
  6
STYLE_06
 62
               7
100
AcDbLine
 10
-2751.2999914094817
 20
261.90205096251447
 30
0.0
 11
-3354.0999914094809
 21
-622.8979490374935
 31
0.0
  0
LINE
  5
88
100
AcDbEntity
  8
一般
370
              18
390
0
  6
Continuous
 62
               7
100
AcDbLine
 10
-2285.6942440740427
 20
-623.78874134441287
 30
0.0
 11
-2285.6942440740427
 21
1227.2363252664243
 31
0.0
  0
LINE
  5
89
100
AcDbEntity
  8
一般
370
              18
390
0
  6
Continuous
 62
               7
100
AcDbLine
 10
-1782.8833964080377
 20
-873.7636747335813
 30
0.0
 11
-2255.4252671870245
 21
-873.7636747335813
 31
0.0
  0
LINE
  5
8A
100
AcDbEntity
  8
一般
370
              18
390
0
  6
Continuous
 62
               7
100
AcDbLine
 10
-2285.6942440740427
 20
1227.2363252664243
 30
0.0
 11
-1730.6942440740427
 21
1227.2363252664243
 31
0.0
  0
LINE
  5
8B
100
AcDbEntity
  8
一般
370
              18
390
0
  6
Continuous
 62
               7
100
AcDbLine
 10
-2255.4252671870245
 20
-873.56281965638789
 30
0.0
 11
-2255.4252671870249
 21
-623.78874134441287
 31
0.0
  0
LINE
  5
8C
100
AcDbEntity
  8
一般
370
              18
390
0
  6
Continuous
 62
               7
100
AcDbLine
 10
-1730.6942440740427
 20
-623.78874134441287
 30
0.0
 11
-1730.6942440740427
 21
1227.2363252664243
 31
0.0
  0
POLYLINE
  5
8D
100
AcDbEntity
  8
一般
370
              15
390
0
  6
Continuous
 62
               7
100
AcDb2dPolyline
 66
               1
 10
0.0
 20
0.0
 30
0.0
 70
               1
 75
               5
  0
VERTEX
  5
8E
100
AcDbEntity
  8
一般
370
              15
390
0
  6
Continuous
 62
               7
100
AcDbVertex
100
AcDb2dVertex
 10
-1730.69847797285
 20
1147.2520509625062
 30
0.0
  0
VERTEX
  5
8F
100
AcDbEntity
  8
一般
370
              15
390
0
  6
Continuous
 62
               7
100
AcDbVertex
100
AcDb2dVertex
 10
-1709.69847797285
 20
1147.2520509625062
 30
0.0
  0
VERTEX
  5
90
100
AcDbEntity
  8
一般
370
              15
390
0
  6
Continuous
 62
               7
100
AcDbVertex
100
AcDb2dVertex
 10
-1709.69847797285
 20
-599.74794903749375
 30
0.0
  0
VERTEX
  5
91
100
AcDbEntity
  8
一般
370
              15
390
0
  6
Continuous
 62
               7
100
AcDbVertex
100
AcDb2dVertex
 10
-1730.69847797285
 20
-599.74794903749375
 30
0.0
  0
SEQEND
  5
92
100
AcDbEntity
  8
一般
370
              15
390
0
  6
Continuous
 62
               7
  0
POLYLINE
  5
94
100
AcDbEntity
  8
一般
370
              15
390
0
  6
Continuous
 62
               7
100
AcDb2dPolyline
 66
               1
 10
0.0
 20
0.0
 30
0.0
 70
               1
 75
               5
  0
VERTEX
  5
95
100
AcDbEntity
  8
一般
370
              15
390
0
  6
Continuous
 62
               7
100
AcDbVertex
100
AcDb2dVertex
 10
-1709.69847797285
 20
1147.2520509625065
 30
0.0
  0
VERTEX
  5
96
100
AcDbEntity
  8
一般
370
              15
390
0
  6
Continuous
 62
               7
100
AcDbVertex
100
AcDb2dVertex
 10
-1679.69847797285
 20
1147.2520509625065
 30
0.0
  0
VERTEX
  5
97
100
AcDbEntity
  8
一般
370
              15
390
0
  6
Continuous
 62
               7
100
AcDbVertex
100
AcDb2dVertex
 10
-1679.69847797285
 20
-622.74794903749364
 30
0.0
  0
VERTEX
  5
98
100
AcDbEntity
  8
一般
370
              15
390
0
  6
Continuous
 62
               7
100
AcDbVertex
100
AcDb2dVertex
 10
-1709.69847797285
 20
-622.74794903749364
 30
0.0
  0
SEQEND
  5
99
100
AcDbEntity
  8
一般
370
              15
390
0
  6
Continuous
 62
               7
  0
POLYLINE
  5
9B
100
AcDbEntity
  8
寸法
370
              15
390
0
  6
Continuous
 62
               7
100
AcDb2dPolyline
 66
               1
 10
0.0
 20
0.0
 30
0.0
 70
               1
 75
               5
  0
VERTEX
  5
9C
100
AcDbEntity
  8
寸法
370
              15
390
0
  6
Continuous
 62
               7
100
AcDbVertex
100
AcDb2dVertex
 10
-1811.2681060813215
 20
-894.20469296431236
 30
0.0
  0
VERTEX
  5
9D
100
AcDbEntity
  8
寸法
370
              15
390
0
  6
Continuous
 62
               7
100
AcDbVertex
100
AcDb2dVertex
 10
-1781.2681060813215
 20
-894.20469296431236
 30
0.0
  0
VERTEX
  5
9E
100
AcDbEntity
  8
寸法
370
              15
390
0
  6
Continuous
 62
               7
100
AcDbVertex
100
AcDb2dVertex
 10
-1781.2681060813215
 20
-897.70469296431236
 30
0.0
  0
VERTEX
  5
9F
100
AcDbEntity
  8
寸法
370
              15
390
0
  6
Continuous
 62
               7
100
AcDbVertex
100
AcDb2dVertex
 10
-1811.2681060813215
 20
-897.70469296431236
 30
0.0
  0
SEQEND
  5
A0
100
AcDbEntity
  8
寸法
370
              15
390
0
  6
Continuous
 62
               7
  0
WIPEOUT
  5
A2
100
AcDbEntity
  8
寸法
370
              15
390
0
  6
Continuous
 62
               7
 92
        0
100
AcDbWipeout
 90
        0
 10
-1802.925627323089
 20
-894.20469296431236
 30
0.0
 11
20.471841620039868
 21
0.0
 31
0.0
 12
0.0
 22
20.471841620039868
 32
0.0
 13
1.0
 23
1.0
340
0
 70
               7
280
               1
281
              50
282
              50
283
               0
360
0
 71
               2
 91
        5
 14
-0.5
 24
-0.5
 14
0.1350185899872491
 24
-0.5
 14
0.1350185899872491
 24
0.5
 14
-0.5
 24
0.5
 14
-0.5
 24
-0.5
  0
POLYLINE
  5
A3
100
AcDbEntity
  8
寸法
370
              15
390
0
  6
Continuous
 62
               7
100
AcDb2dPolyline
 66
               1
 10
0.0
 20
0.0
 30
0.0
 70
               1
 75
               5
  0
VERTEX
  5
A4
100
AcDbEntity
  8
寸法
370
              15
390
0
  6
Continuous
 62
               7
100
AcDbVertex
100
AcDb2dVertex
 10
-1802.925627323089
 20
-873.73285134427249
 30
0.0
  0
VERTEX
  5
A5
100
AcDbEntity
  8
寸法
370
              15
390
0
  6
Continuous
 62
               7
100
AcDbVertex
100
AcDb2dVertex
 10
-1789.925627323089
 20
-873.73285134427249
 30
0.0
  0
VERTEX
  5
A6
100
AcDbEntity
  8
寸法
370
              15
390
0
  6
Continuous
 62
               7
100
AcDbVertex
100
AcDb2dVertex
 10
-1789.925627323089
 20
-894.20469296431236
 30
0.0
  0
VERTEX
  5
A7
100
AcDbEntity
  8
寸法
370
              15
390
0
  6
Continuous
 62
               7
100
AcDbVertex
100
AcDb2dVertex
 10
-1802.925627323089
 20
-894.20469296431236
 30
0.0
  0
SEQEND
  5
A8
100
AcDbEntity
  8
寸法
370
              15
390
0
  6
Continuous
 62
               7
  0
LINE
  5
AA
100
AcDbEntity
  8
一般
370
              18
390
0
  6
Continuous
 62
               7
100
AcDbLine
 10
-1733.8833964080377
 20
-718.7636747335813
 30
0.0
 11
-1759.8833964080377
 21
-718.7636747335813
 31
0.0
  0
LINE
  5
AB
100
AcDbEntity
  8
一般
370
              18
390
0
  6
Continuous
 62
               7
100
AcDbLine
 10
-1759.8833964080377
 20
-798.7636747335813
 30
0.0
 11
-1782.8833964080377
 21
-798.7636747335813
 31
0.0
  0
POLYLINE
  5
AC
100
AcDbEntity
  8
一般
370
               5
390
0
  6
Continuous
 62
               7
100
AcDb2dPolyline
 66
               1
 10
0.0
 20
0.0
 30
0.0
 70
               1
 75
               5
  0
VERTEX
  5
AD
100
AcDbEntity
  8
一般
370
               5
390
0
  6
Continuous
 62
               7
100
AcDbVertex
100
AcDb2dVertex
 10
-1679.69847797285
 20
1147.2520509625065
 30
0.0
  0
VERTEX
  5
AE
100
AcDbEntity
  8
一般
370
               5
390
0
  6
Continuous
 62
               7
100
AcDbVertex
100
AcDb2dVertex
 10
-1677.69847797285
 20
1147.2520509625065
 30
0.0
  0
VERTEX
  5
AF
100
AcDbEntity
  8
一般
370
               5
390
0
  6
Continuous
 62
               7
100
AcDbVertex
100
AcDb2dVertex
 10
-1677.69847797285
 20
-622.74794903749364
 30
0.0
  0
VERTEX
  5
B0
100
AcDbEntity
  8
一般
370
               5
390
0
  6
Continuous
 62
               7
100
AcDbVertex
100
AcDb2dVertex
 10
-1679.69847797285
 20
-622.74794903749364
 30
0.0
  0
SEQEND
  5
B1
100
AcDbEntity
  8
一般
370
               5
390
0
  6
Continuous
 62
               7
  0
POLYLINE
  5
B3
100
AcDbEntity
  8
一般
370
              18
390
0
  6
Continuous
 62
               7
100
AcDb2dPolyline
 66
               1
 10
0.0
 20
0.0
 30
0.0
 70
               1
 75
               5
  0
VERTEX
  5
B4
100
AcDbEntity
  8
一般
370
              18
390
0
  6
Continuous
 62
               7
100
AcDbVertex
100
AcDb2dVertex
 10
-735.14183837423207
 20
2280.3386660410224
 30
0.0
  0
VERTEX
  5
B5
100
AcDbEntity
  8
一般
370
              18
390
0
  6
Continuous
 62
               7
100
AcDbVertex
100
AcDb2dVertex
 10
-132.14183837423207
 20
2280.3386660410224
 30
0.0
  0
VERTEX
  5
B6
100
AcDbEntity
  8
一般
370
              18
390
0
  6
Continuous
 62
               7
100
AcDbVertex
100
AcDb2dVertex
 10
-132.14183837423207
 20
1725.3386660410345
 30
0.0
  0
VERTEX
  5
B7
100
AcDbEntity
  8
一般
370
              18
390
0
  6
Continuous
 62
               7
100
AcDbVertex
100
AcDb2dVertex
 10
-735.14183837423207
 20
1725.3386660410345
 30
0.0
  0
SEQEND
  5
B8
100
AcDbEntity
  8
一般
370
              18
390
0
  6
Continuous
 62
               7
  0
POLYLINE
  5
BA
100
AcDbEntity
  8
一般
370
              15
390
0
  6
Continuous
 62
               7
100
AcDb2dPolyline
 66
               1
 10
0.0
 20
0.0
 30
0.0
 70
               1
 75
               5
  0
VERTEX
  5
BB
100
AcDbEntity
  8
一般
370
              15
390
0
  6
Continuous
 62
               7
100
AcDbVertex
100
AcDb2dVertex
 10
-732.08428619134975
 20
1725.3434434513886
 30
0.0
  0
VERTEX
  5
BC
100
AcDbEntity
  8
一般
370
              15
390
0
  6
Continuous
 62
               7
100
AcDbVertex
100
AcDb2dVertex
 10
-134.51562440428006
 20
1725.3434434513886
 30
0.0
  0
VERTEX
  5
BD
100
AcDbEntity
  8
一般
370
              15
390
0
  6
Continuous
 62
               7
100
AcDbVertex
100
AcDb2dVertex
 10
-134.51562440428006
 20
1704.343443451389
 30
0.0
  0
VERTEX
  5
BE
100
AcDbEntity
  8
一般
370
              15
390
0
  6
Continuous
 62
               7
100
AcDbVertex
100
AcDb2dVertex
 10
-732.08428619134975
 20
1704.343443451389
 30
0.0
  0
SEQEND
  5
BF
100
AcDbEntity
  8
一般
370
              15
390
0
  6
Continuous
 62
               7
  0
POLYLINE
  5
C1
100
AcDbEntity
  8
一般
370
              15
390
0
  6
Continuous
 62
               7
100
AcDb2dPolyline
 66
               1
 10
0.0
 20
0.0
 30
0.0
 70
               1
 75
               5
  0
VERTEX
  5
C2
100
AcDbEntity
  8
一般
370
              15
390
0
  6
Continuous
 62
               7
100
AcDbVertex
100
AcDb2dVertex
 10
-732.08428619134975
 20
1704.343443451389
 30
0.0
  0
VERTEX
  5
C3
100
AcDbEntity
  8
一般
370
              15
390
0
  6
Continuous
 62
               7
100
AcDbVertex
100
AcDb2dVertex
 10
-134.51562440428006
 20
1704.343443451389
 30
0.0
  0
VERTEX
  5
C4
100
AcDbEntity
  8
一般
370
              15
390
0
  6
Continuous
 62
               7
100
AcDbVertex
100
AcDb2dVertex
 10
-134.51562440428006
 20
1674.3434434513895
 30
0.0
  0
VERTEX
  5
C5
100
AcDbEntity
  8
一般
370
              15
390
0
  6
Continuous
 62
               7
100
AcDbVertex
100
AcDb2dVertex
 10
-732.08428619134975
 20
1674.3434434513895
 30
0.0
  0
SEQEND
  5
C6
100
AcDbEntity
  8
一般
370
              15
390
0
  6
Continuous
 62
               7
  0
POLYLINE
  5
C8
100
AcDbEntity
  8
一般
370
              18
390
0
  6
Continuous
 62
               7
100
AcDb2dPolyline
 66
               1
 10
0.0
 20
0.0
 30
0.0
 70
               1
 75
               5
  0
VERTEX
  5
C9
100
AcDbEntity
  8
一般
370
              18
390
0
  6
Continuous
 62
               7
100
AcDbVertex
100
AcDb2dVertex
 10
-735.14183837423207
 20
1227.2363252664186
 30
0.0
  0
VERTEX
  5
CA
100
AcDbEntity
  8
一般
370
              18
390
0
  6
Continuous
 62
               7
100
AcDbVertex
100
AcDb2dVertex
 10
-132.14183837423207
 20
1227.2363252664186
 30
0.0
  0
VERTEX
  5
CB
100
AcDbEntity
  8
一般
370
              18
390
0
  6
Continuous
 62
               7
100
AcDbVertex
100
AcDb2dVertex
 10
-132.14183837423207
 20
-873.7636747335813
 30
0.0
  0
VERTEX
  5
CC
100
AcDbEntity
  8
一般
370
              18
390
0
  6
Continuous
 62
               7
100
AcDbVertex
100
AcDb2dVertex
 10
-735.14183837423207
 20
-873.7636747335813
 30
0.0
  0
SEQEND
  5
CD
100
AcDbEntity
  8
一般
370
              18
390
0
  6
Continuous
 62
               7
  0
LINE
  5
CF
100
AcDbEntity
  8
一般
370
              18
390
0
  6
Continuous
 62
               7
100
AcDbLine
 10
333.29012293115602
 20
-623.78874134441287
 30
0.0
 11
888.29012293115613
 21
-623.78874134441287
 31
0.0
  0
LINE
  5
D0
100
AcDbEntity
  8
一般
370
              18
390
0
  6
Continuous
 62
               7
100
AcDbLine
 10
-735.10285200650151
 20
-623.78874134441287
 30
0.0
 11
-132.10285200650196
 21
-623.78874134441287
 31
0.0
  0
LINE
  5
D1
100
AcDbEntity
  8
一般
370
              18
390
0
  6
Continuous
 62
               7
100
AcDbLine
 10
-735.10285200650151
 20
-718.78874134441241
 30
0.0
 11
-132.10285200650196
 21
-718.78874134441241
 31
0.0
  0
LINE
  5
D2
100
AcDbEntity
  8
一般
370
              18
390
0
  6
Continuous
 62
               7
100
AcDbLine
 10
-735.10285200650151
 20
-798.78874134441241
 30
0.0
 11
-132.10285200650196
 21
-798.78874134441241
 31
0.0
  0
POLYLINE
  5
D3
100
AcDbEntity
  8
寸法
370
              15
390
0
  6
Continuous
 62
               7
100
AcDb2dPolyline
 66
               1
 10
0.0
 20
0.0
 30
0.0
 70
               1
 75
               5
  0
VERTEX
  5
D4
100
AcDbEntity
  8
寸法
370
              15
390
0
  6
Continuous
 62
               7
100
AcDbVertex
100
AcDb2dVertex
 10
-722.12651210998592
 20
-894.20469296431236
 30
0.0
  0
VERTEX
  5
D5
100
AcDbEntity
  8
寸法
370
              15
390
0
  6
Continuous
 62
               7
100
AcDbVertex
100
AcDb2dVertex
 10
-692.12651210998592
 20
-894.20469296431236
 30
0.0
  0
VERTEX
  5
D6
100
AcDbEntity
  8
寸法
370
              15
390
0
  6
Continuous
 62
               7
100
AcDbVertex
100
AcDb2dVertex
 10
-692.12651210998592
 20
-897.70469296431236
 30
0.0
  0
VERTEX
  5
D7
100
AcDbEntity
  8
寸法
370
              15
390
0
  6
Continuous
 62
               7
100
AcDbVertex
100
AcDb2dVertex
 10
-722.12651210998592
 20
-897.70469296431236
 30
0.0
  0
SEQEND
  5
D8
100
AcDbEntity
  8
寸法
370
              15
390
0
  6
Continuous
 62
               7
  0
WIPEOUT
  5
DA
100
AcDbEntity
  8
寸法
370
              15
390
0
  6
Continuous
 62
               7
 92
        0
100
AcDbWipeout
 90
        0
 10
-713.78403335175335
 20
-894.20469296431236
 30
0.0
 11
20.471841620039868
 21
0.0
 31
0.0
 12
0.0
 22
20.471841620039868
 32
0.0
 13
1.0
 23
1.0
340
0
 70
               7
280
               1
281
              50
282
              50
283
               0
360
0
 71
               2
 91
        5
 14
-0.5
 24
-0.5
 14
0.1350185899872491
 24
-0.5
 14
0.1350185899872491
 24
0.5
 14
-0.5
 24
0.5
 14
-0.5
 24
-0.5
  0
POLYLINE
  5
DB
100
AcDbEntity
  8
寸法
370
              15
390
0
  6
Continuous
 62
               7
100
AcDb2dPolyline
 66
               1
 10
0.0
 20
0.0
 30
0.0
 70
               1
 75
               5
  0
VERTEX
  5
DC
100
AcDbEntity
  8
寸法
370
              15
390
0
  6
Continuous
 62
               7
100
AcDbVertex
100
AcDb2dVertex
 10
-713.78403335175335
 20
-873.73285134427249
 30
0.0
  0
VERTEX
  5
DD
100
AcDbEntity
  8
寸法
370
              15
390
0
  6
Continuous
 62
               7
100
AcDbVertex
100
AcDb2dVertex
 10
-700.78403335175335
 20
-873.73285134427249
 30
0.0
  0
VERTEX
  5
DE
100
AcDbEntity
  8
寸法
370
              15
390
0
  6
Continuous
 62
               7
100
AcDbVertex
100
AcDb2dVertex
 10
-700.78403335175335
 20
-894.20469296431236
 30
0.0
  0
VERTEX
  5
DF
100
AcDbEntity
  8
寸法
370
              15
390
0
  6
Continuous
 62
               7
100
AcDbVertex
100
AcDb2dVertex
 10
-713.78403335175335
 20
-894.20469296431236
 30
0.0
  0
SEQEND
  5
E0
100
AcDbEntity
  8
寸法
370
              15
390
0
  6
Continuous
 62
               7
  0
POLYLINE
  5
E2
100
AcDbEntity
  8
寸法
370
              15
390
0
  6
Continuous
 62
               7
100
AcDb2dPolyline
 66
               1
 10
0.0
 20
0.0
 30
0.0
 70
               1
 75
               5
  0
VERTEX
  5
E3
100
AcDbEntity
  8
寸法
370
              15
390
0
  6
Continuous
 62
               7
100
AcDbVertex
100
AcDb2dVertex
 10
-175.06578972809552
 20
-894.20469296431236
 30
0.0
  0
VERTEX
  5
E4
100
AcDbEntity
  8
寸法
370
              15
390
0
  6
Continuous
 62
               7
100
AcDbVertex
100
AcDb2dVertex
 10
-145.06578972809552
 20
-894.20469296431236
 30
0.0
  0
VERTEX
  5
E5
100
AcDbEntity
  8
寸法
370
              15
390
0
  6
Continuous
 62
               7
100
AcDbVertex
100
AcDb2dVertex
 10
-145.06578972809552
 20
-897.70469296431236
 30
0.0
  0
VERTEX
  5
E6
100
AcDbEntity
  8
寸法
370
              15
390
0
  6
Continuous
 62
               7
100
AcDbVertex
100
AcDb2dVertex
 10
-175.06578972809552
 20
-897.70469296431236
 30
0.0
  0
SEQEND
  5
E7
100
AcDbEntity
  8
寸法
370
              15
390
0
  6
Continuous
 62
               7
  0
WIPEOUT
  5
E9
100
AcDbEntity
  8
寸法
370
              15
390
0
  6
Continuous
 62
               7
 92
        0
100
AcDbWipeout
 90
        0
 10
-166.72331096986295
 20
-894.20469296431236
 30
0.0
 11
20.471841620039868
 21
0.0
 31
0.0
 12
0.0
 22
20.471841620039868
 32
0.0
 13
1.0
 23
1.0
340
0
 70
               7
280
               1
281
              50
282
              50
283
               0
360
0
 71
               2
 91
        5
 14
-0.5
 24
-0.5
 14
0.1350185899872491
 24
-0.5
 14
0.1350185899872491
 24
0.5
 14
-0.5
 24
0.5
 14
-0.5
 24
-0.5
  0
POLYLINE
  5
EA
100
AcDbEntity
  8
寸法
370
              15
390
0
  6
Continuous
 62
               7
100
AcDb2dPolyline
 66
               1
 10
0.0
 20
0.0
 30
0.0
 70
               1
 75
               5
  0
VERTEX
  5
EB
100
AcDbEntity
  8
寸法
370
              15
390
0
  6
Continuous
 62
               7
100
AcDbVertex
100
AcDb2dVertex
 10
-166.72331096986295
 20
-873.73285134427249
 30
0.0
  0
VERTEX
  5
EC
100
AcDbEntity
  8
寸法
370
              15
390
0
  6
Continuous
 62
               7
100
AcDbVertex
100
AcDb2dVertex
 10
-153.72331096986295
 20
-873.73285134427249
 30
0.0
  0
VERTEX
  5
ED
100
AcDbEntity
  8
寸法
370
              15
390
0
  6
Continuous
 62
               7
100
AcDbVertex
100
AcDb2dVertex
 10
-153.72331096986295
 20
-894.20469296431236
 30
0.0
  0
VERTEX
  5
EE
100
AcDbEntity
  8
寸法
370
              15
390
0
  6
Continuous
 62
               7
100
AcDbVertex
100
AcDb2dVertex
 10
-166.72331096986295
 20
-894.20469296431236
 30
0.0
  0
SEQEND
  5
EF
100
AcDbEntity
  8
寸法
370
              15
390
0
  6
Continuous
 62
               7
  0
LINE
  5
F1
100
AcDbEntity
  8
一般
370
               5
390
0
  6
STYLE_06
 62
               7
100
AcDbLine
 10
-735.11562440427997
 20
1146.9020509625122
 30
0.0
 11
-132.3156244042807
 21
262.10205096251451
 31
0.0
  0
LINE
  5
F2
100
AcDbEntity
  8
一般
370
               5
390
0
  6
STYLE_06
 62
               7
100
AcDbLine
 10
-132.31562440428024
 20
261.90205096251447
 30
0.0
 11
-735.11562440427952
 21
-622.8979490374935
 31
0.0
  0
LINE
  5
F3
100
AcDbEntity
  8
一般
370
              18
390
0
  6
Continuous
 62
               7
100
AcDbLine
 10
333.29012293115602
 20
-623.78874134441287
 30
0.0
 11
333.29012293115602
 21
1227.2363252664243
 31
0.0
  0
LINE
  5
F4
100
AcDbEntity
  8
一般
370
              18
390
0
  6
Continuous
 62
               7
100
AcDbLine
 10
333.29012293115602
 20
1227.2363252664243
 30
0.0
 11
888.29012293115613
 21
1227.2363252664243
 31
0.0
  0
POLYLINE
  5
F5
100
AcDbEntity
  8
寸法
370
              15
390
0
  6
STYLE_05
 62
               7
100
AcDb2dPolyline
 66
               1
 10
0.0
 20
0.0
 30
0.0
 70
               1
 75
               5
  0
VERTEX
  5
F6
100
AcDbEntity
  8
寸法
370
              15
390
0
  6
STYLE_05
 62
               7
100
AcDbVertex
100
AcDb2dVertex
 10
848.3051335440183
 20
1215.1020509625121
 30
0.0
  0
VERTEX
  5
F7
100
AcDbEntity
  8
寸法
370
              15
390
0
  6
STYLE_05
 62
               7
100
AcDbVertex
100
AcDb2dVertex
 10
888.50537612989979
 20
1215.1020509625121
 30
0.0
  0
VERTEX
  5
F8
100
AcDbEntity
  8
寸法
370
              15
390
0
  6
STYLE_05
 62
               7
100
AcDbVertex
100
AcDb2dVertex
 10
888.50537612989979
 20
1167.935903521198
 30
0.0
  0
VERTEX
  5
F9
100
AcDbEntity
  8
寸法
370
              15
390
0
  6
STYLE_05
 62
               7
100
AcDbVertex
100
AcDb2dVertex
 10
848.3051335440183
 20
1167.935903521198
 30
0.0
  0
SEQEND
  5
FA
100
AcDbEntity
  8
寸法
370
              15
390
0
  6
STYLE_05
 62
               7
  0
LINE
  5
FC
100
AcDbEntity
  8
一般
370
              18
390
0
  6
Continuous
 62
               7
100
AcDbLine
 10
888.29012293115613
 20
-623.78874134441287
 30
0.0
 11
888.29012293115613
 21
1227.2363252664243
 31
0.0
  0
POLYLINE
  5
FD
100
AcDbEntity
  8
一般
370
              15
390
0
  6
Continuous
 62
               7
100
AcDb2dPolyline
 66
               1
 10
0.0
 20
0.0
 30
0.0
 70
               1
 75
               5
  0
VERTEX
  5
FE
100
AcDbEntity
  8
一般
370
              15
390
0
  6
Continuous
 62
               7
100
AcDbVertex
100
AcDb2dVertex
 10
888.28588903234902
 20
1147.2520509625062
 30
0.0
  0
VERTEX
  5
FF
100
AcDbEntity
  8
一般
370
              15
390
0
  6
Continuous
 62
               7
100
AcDbVertex
100
AcDb2dVertex
 10
909.28588903234913
 20
1147.2520509625062
 30
0.0
  0
VERTEX
  5
100
100
AcDbEntity
  8
一般
370
              15
390
0
  6
Continuous
 62
               7
100
AcDbVertex
100
AcDb2dVertex
 10
909.28588903234913
 20
-599.74794903749375
 30
0.0
  0
VERTEX
  5
101
100
AcDbEntity
  8
一般
370
              15
390
0
  6
Continuous
 62
               7
100
AcDbVertex
100
AcDb2dVertex
 10
888.28588903234902
 20
-599.74794903749375
 30
0.0
  0
SEQEND
  5
102
100
AcDbEntity
  8
一般
370
              15
390
0
  6
Continuous
 62
               7
  0
POLYLINE
  5
104
100
AcDbEntity
  8
一般
370
              15
390
0
  6
Continuous
 62
               7
100
AcDb2dPolyline
 66
               1
 10
0.0
 20
0.0
 30
0.0
 70
               1
 75
               5
  0
VERTEX
  5
105
100
AcDbEntity
  8
一般
370
              15
390
0
  6
Continuous
 62
               7
100
AcDbVertex
100
AcDb2dVertex
 10
909.28588903234902
 20
1147.2520509625065
 30
0.0
  0
VERTEX
  5
106
100
AcDbEntity
  8
一般
370
              15
390
0
  6
Continuous
 62
               7
100
AcDbVertex
100
AcDb2dVertex
 10
939.28588903234925
 20
1147.2520509625065
 30
0.0
  0
VERTEX
  5
107
100
AcDbEntity
  8
一般
370
              15
390
0
  6
Continuous
 62
               7
100
AcDbVertex
100
AcDb2dVertex
 10
939.28588903234925
 20
-622.74794903749364
 30
0.0
  0
VERTEX
  5
108
100
AcDbEntity
  8
一般
370
              15
390
0
  6
Continuous
 62
               7
100
AcDbVertex
100
AcDb2dVertex
 10
909.28588903234902
 20
-622.74794903749364
 30
0.0
  0
SEQEND
  5
109
100
AcDbEntity
  8
一般
370
              15
390
0
  6
Continuous
 62
               7
  0
POLYLINE
  5
10B
100
AcDbEntity
  8
一般
370
               5
390
0
  6
Continuous
 62
               7
100
AcDb2dPolyline
 66
               1
 10
0.0
 20
0.0
 30
0.0
 70
               1
 75
               5
  0
VERTEX
  5
10C
100
AcDbEntity
  8
一般
370
               5
390
0
  6
Continuous
 62
               7
100
AcDbVertex
100
AcDb2dVertex
 10
939.22722603902901
 20
1147.2520509625065
 30
0.0
  0
VERTEX
  5
10D
100
AcDbEntity
  8
一般
370
               5
390
0
  6
Continuous
 62
               7
100
AcDbVertex
100
AcDb2dVertex
 10
941.22722603902901
 20
1147.2520509625065
 30
0.0
  0
VERTEX
  5
10E
100
AcDbEntity
  8
一般
370
               5
390
0
  6
Continuous
 62
               7
100
AcDbVertex
100
AcDb2dVertex
 10
941.22722603902901
 20
-622.74794903749364
 30
0.0
  0
VERTEX
  5
10F
100
AcDbEntity
  8
一般
370
               5
390
0
  6
Continuous
 62
               7
100
AcDbVertex
100
AcDb2dVertex
 10
939.22722603902901
 20
-622.74794903749364
 30
0.0
  0
SEQEND
  5
110
100
AcDbEntity
  8
一般
370
               5
390
0
  6
Continuous
 62
               7
  0
WIPEOUT
  5
112
100
AcDbEntity
  8
一般
370
              18
390
0
  6
Continuous
 62
               7
 92
        0
100
AcDbWipeout
 90
        0
 10
-735.15281432587335
 20
-794.94561497800839
 30
0.0
 11
2029.0
 21
0.0
 31
0.0
 12
0.0
 22
2029.0
 32
0.0
 13
1.0
 23
1.0
340
0
 70
               7
280
               1
281
              50
282
              50
283
               0
360
0
 71
               2
 91
        5
 14
-0.5
 24
-0.5
 14
-0.2028092656481025
 24
-0.5
 14
-0.2028092656481025
 24
0.5
 14
-0.5
 24
0.5
 14
-0.5
 24
-0.5
  0
POLYLINE
  5
113
100
AcDbEntity
  8
一般
370
              18
390
0
  6
Continuous
 62
               7
100
AcDb2dPolyline
 66
               1
 10
0.0
 20
0.0
 30
0.0
 70
               1
 75
               5
  0
VERTEX
  5
114
100
AcDbEntity
  8
一般
370
              18
390
0
  6
Continuous
 62
               7
100
AcDbVertex
100
AcDb2dVertex
 10
-735.15281432587335
 20
1234.0543850219915
 30
0.0
  0
VERTEX
  5
115
100
AcDbEntity
  8
一般
370
              18
390
0
  6
Continuous
 62
               7
100
AcDbVertex
100
AcDb2dVertex
 10
-132.15281432587335
 20
1234.0543850219915
 30
0.0
  0
VERTEX
  5
116
100
AcDbEntity
  8
一般
370
              18
390
0
  6
Continuous
 62
               7
100
AcDbVertex
100
AcDb2dVertex
 10
-132.15281432587335
 20
-794.94561497800839
 30
0.0
  0
VERTEX
  5
117
100
AcDbEntity
  8
一般
370
              18
390
0
  6
Continuous
 62
               7
100
AcDbVertex
100
AcDb2dVertex
 10
-735.15281432587335
 20
-794.94561497800839
 30
0.0
  0
SEQEND
  5
118
100
AcDbEntity
  8
一般
370
              18
390
0
  6
Continuous
 62
               7
  0
WIPEOUT
  5
11A
100
AcDbEntity
  8
一般
370
              15
390
0
  6
Continuous
 62
               7
 92
        0
100
AcDbWipeout
 90
        0
 10
941.39834648012425
 20
-794.94561497800839
 30
0.0
 11
2029.0
 21
0.0
 31
0.0
 12
0.0
 22
2029.0
 32
0.0
 13
1.0
 23
1.0
340
0
 70
               7
280
               1
281
              50
282
              50
283
               0
360
0
 71
               2
 91
        5
 14
-0.5
 24
-0.5
 14
-0.4906357811729916
 24
-0.5
 14
-0.4906357811729916
 24
0.5
 14
-0.5
 24
0.5
 14
-0.5
 24
-0.5
  0
POLYLINE
  5
11B
100
AcDbEntity
  8
一般
370
              15
390
0
  6
Continuous
 62
               7
100
AcDb2dPolyline
 66
               1
 10
0.0
 20
0.0
 30
0.0
 70
               1
 75
               5
  0
VERTEX
  5
11C
100
AcDbEntity
  8
一般
370
              15
390
0
  6
Continuous
 62
               7
100
AcDbVertex
100
AcDb2dVertex
 10
941.39834648012425
 20
1234.0543850219915
 30
0.0
  0
VERTEX
  5
11D
100
AcDbEntity
  8
一般
370
              15
390
0
  6
Continuous
 62
               7
100
AcDbVertex
100
AcDb2dVertex
 10
960.39834648012425
 20
1234.0543850219915
 30
0.0
  0
VERTEX
  5
11E
100
AcDbEntity
  8
一般
370
              15
390
0
  6
Continuous
 62
               7
100
AcDbVertex
100
AcDb2dVertex
 10
960.39834648012425
 20
-794.94561497800839
 30
0.0
  0
VERTEX
  5
11F
100
AcDbEntity
  8
一般
370
              15
390
0
  6
Continuous
 62
               7
100
AcDbVertex
100
AcDb2dVertex
 10
941.39834648012425
 20
-794.94561497800839
 30
0.0
  0
SEQEND
  5
120
100
AcDbEntity
  8
一般
370
              15
390
0
  6
Continuous
 62
               7
  0
WIPEOUT
  5
122
100
AcDbEntity
  8
寸法
370
              15
390
0
  6
Continuous
 62
               7
 92
        0
100
AcDbWipeout
 90
        0
 10
888.5053761298999
 20
1168.1020509625121
 30
0.0
 11
50.836575494950694
 21
0.0
 31
0.0
 12
0.0
 22
50.836575494950694
 32
0.0
 13
1.0
 23
1.0
340
0
 70
               7
280
               1
281
              50
282
              50
283
               0
360
0
 71
               2
 91
        5
 14
-0.5
 24
-0.4245311971233875
 14
0.5
 24
-0.4245311971233875
 14
0.5
 24
0.5
 14
-0.5
 24
0.5
 14
-0.5
 24
-0.4245311971233875
  0
POLYLINE
  5
123
100
AcDbEntity
  8
寸法
370
              15
390
0
  6
Continuous
 62
               7
100
AcDb2dPolyline
 66
               1
 10
0.0
 20
0.0
 30
0.0
 70
               1
 75
               5
  0
VERTEX
  5
124
100
AcDbEntity
  8
寸法
370
              15
390
0
  6
Continuous
 62
               7
100
AcDbVertex
100
AcDb2dVertex
 10
888.5053761298999
 20
1215.1020509625123
 30
0.0
  0
VERTEX
  5
125
100
AcDbEntity
  8
寸法
370
              15
390
0
  6
Continuous
 62
               7
100
AcDbVertex
100
AcDb2dVertex
 10
939.34195162485059
 20
1215.1020509625123
 30
0.0
  0
VERTEX
  5
126
100
AcDbEntity
  8
寸法
370
              15
390
0
  6
Continuous
 62
               7
100
AcDbVertex
100
AcDb2dVertex
 10
939.34195162485059
 20
1168.1020509625121
 30
0.0
  0
VERTEX
  5
127
100
AcDbEntity
  8
寸法
370
              15
390
0
  6
Continuous
 62
               7
100
AcDbVertex
100
AcDb2dVertex
 10
888.5053761298999
 20
1168.1020509625121
 30
0.0
  0
SEQEND
  5
128
100
AcDbEntity
  8
寸法
370
              15
390
0
  6
Continuous
 62
               7
  0
WIPEOUT
  5
12A
100
AcDbEntity
  8
寸法
370
              15
390
0
  6
Continuous
 62
               7
 92
        0
100
AcDbWipeout
 90
        0
 10
919.24211883513408
 20
1147.2064067810386
 30
0.0
 11
54.999999999999091
 21
0.0
 31
0.0
 12
0.0
 22
54.999999999999091
 32
0.0
 13
1.0
 23
1.0
340
0
 70
               7
280
               1
281
              50
282
              50
283
               0
360
0
 71
               2
 91
        5
 14
-0.5
 24
-0.5
 14
-0.1363636363636304
 24
-0.5
 14
-0.1363636363636304
 24
0.5
 14
-0.5
 24
0.5
 14
-0.5
 24
-0.5
  0
POLYLINE
  5
12B
100
AcDbEntity
  8
寸法
370
              15
390
0
  6
Continuous
 62
               7
100
AcDb2dPolyline
 66
               1
 10
0.0
 20
0.0
 30
0.0
 70
               1
 75
               5
  0
VERTEX
  5
12C
100
AcDbEntity
  8
寸法
370
              15
390
0
  6
Continuous
 62
               7
100
AcDbVertex
100
AcDb2dVertex
 10
919.24211883513408
 20
1202.2064067810377
 30
0.0
  0
VERTEX
  5
12D
100
AcDbEntity
  8
寸法
370
              15
390
0
  6
Continuous
 62
               7
100
AcDbVertex
100
AcDb2dVertex
 10
939.24211883513408
 20
1202.2064067810377
 30
0.0
  0
VERTEX
  5
12E
100
AcDbEntity
  8
寸法
370
              15
390
0
  6
Continuous
 62
               7
100
AcDbVertex
100
AcDb2dVertex
 10
939.24211883513408
 20
1147.2064067810386
 30
0.0
  0
VERTEX
  5
12F
100
AcDbEntity
  8
寸法
370
              15
390
0
  6
Continuous
 62
               7
100
AcDbVertex
100
AcDb2dVertex
 10
919.24211883513408
 20
1147.2064067810386
 30
0.0
  0
SEQEND
  5
130
100
AcDbEntity
  8
寸法
370
              15
390
0
  6
Continuous
 62
               7
  0
WIPEOUT
  5
132
100
AcDbEntity
  8
寸法
370
              15
390
0
  6
Continuous
 62
               7
 92
        0
100
AcDbWipeout
 90
        0
 10
-1730.6999914094813
 20
1168.1020509625121
 30
0.0
 11
50.836575494949557
 21
0.0
 31
0.0
 12
0.0
 22
50.836575494949557
 32
0.0
 13
1.0
 23
1.0
340
0
 70
               7
280
               1
281
              50
282
              50
283
               0
360
0
 71
               2
 91
        5
 14
-0.5
 24
-0.4245311971234081
 14
0.5
 24
-0.4245311971234081
 14
0.5
 24
0.5
 14
-0.5
 24
0.5
 14
-0.5
 24
-0.4245311971234081
  0
POLYLINE
  5
133
100
AcDbEntity
  8
寸法
370
              15
390
0
  6
Continuous
 62
               7
100
AcDb2dPolyline
 66
               1
 10
0.0
 20
0.0
 30
0.0
 70
               1
 75
               5
  0
VERTEX
  5
134
100
AcDbEntity
  8
寸法
370
              15
390
0
  6
Continuous
 62
               7
100
AcDbVertex
100
AcDb2dVertex
 10
-1730.6999914094813
 20
1215.1020509625123
 30
0.0
  0
VERTEX
  5
135
100
AcDbEntity
  8
寸法
370
              15
390
0
  6
Continuous
 62
               7
100
AcDbVertex
100
AcDb2dVertex
 10
-1679.8634159145317
 20
1215.1020509625123
 30
0.0
  0
VERTEX
  5
136
100
AcDbEntity
  8
寸法
370
              15
390
0
  6
Continuous
 62
               7
100
AcDbVertex
100
AcDb2dVertex
 10
-1679.8634159145317
 20
1168.1020509625121
 30
0.0
  0
VERTEX
  5
137
100
AcDbEntity
  8
寸法
370
              15
390
0
  6
Continuous
 62
               7
100
AcDbVertex
100
AcDb2dVertex
 10
-1730.6999914094813
 20
1168.1020509625121
 30
0.0
  0
SEQEND
  5
138
100
AcDbEntity
  8
寸法
370
              15
390
0
  6
Continuous
 62
               7
  0
POLYLINE
  5
13A
100
AcDbEntity
  8
寸法
370
              15
390
0
  6
STYLE_05
 62
               7
100
AcDb2dPolyline
 66
               1
 10
0.0
 20
0.0
 30
0.0
 70
               1
 75
               5
  0
VERTEX
  5
13B
100
AcDbEntity
  8
寸法
370
              15
390
0
  6
STYLE_05
 62
               7
100
AcDbVertex
100
AcDb2dVertex
 10
-1770.9002339953622
 20
1215.1020509625121
 30
0.0
  0
VERTEX
  5
13C
100
AcDbEntity
  8
寸法
370
              15
390
0
  6
STYLE_05
 62
               7
100
AcDbVertex
100
AcDb2dVertex
 10
-1730.6999914094818
 20
1215.1020509625121
 30
0.0
  0
VERTEX
  5
13D
100
AcDbEntity
  8
寸法
370
              15
390
0
  6
STYLE_05
 62
               7
100
AcDbVertex
100
AcDb2dVertex
 10
-1730.6999914094818
 20
1167.935903521198
 30
0.0
  0
VERTEX
  5
13E
100
AcDbEntity
  8
寸法
370
              15
390
0
  6
STYLE_05
 62
               7
100
AcDbVertex
100
AcDb2dVertex
 10
-1770.9002339953622
 20
1167.935903521198
 30
0.0
  0
SEQEND
  5
13F
100
AcDbEntity
  8
寸法
370
              15
390
0
  6
STYLE_05
 62
               7
  0
WIPEOUT
  5
141
100
AcDbEntity
  8
寸法
370
              15
390
0
  6
Continuous
 62
               7
 92
        0
100
AcDbWipeout
 90
        0
 10
-1699.839783363228
 20
1147.2064067810386
 30
0.0
 11
54.999999999999091
 21
0.0
 31
0.0
 12
0.0
 22
54.999999999999091
 32
0.0
 13
1.0
 23
1.0
340
0
 70
               7
280
               1
281
              50
282
              50
283
               0
360
0
 71
               2
 91
        5
 14
-0.5
 24
-0.5
 14
-0.1363636363636304
 24
-0.5
 14
-0.1363636363636304
 24
0.5
 14
-0.5
 24
0.5
 14
-0.5
 24
-0.5
  0
POLYLINE
  5
142
100
AcDbEntity
  8
寸法
370
              15
390
0
  6
Continuous
 62
               7
100
AcDb2dPolyline
 66
               1
 10
0.0
 20
0.0
 30
0.0
 70
               1
 75
               5
  0
VERTEX
  5
143
100
AcDbEntity
  8
寸法
370
              15
390
0
  6
Continuous
 62
               7
100
AcDbVertex
100
AcDb2dVertex
 10
-1699.839783363228
 20
1202.2064067810377
 30
0.0
  0
VERTEX
  5
144
100
AcDbEntity
  8
寸法
370
              15
390
0
  6
Continuous
 62
               7
100
AcDbVertex
100
AcDb2dVertex
 10
-1679.839783363228
 20
1202.2064067810377
 30
0.0
  0
VERTEX
  5
145
100
AcDbEntity
  8
寸法
370
              15
390
0
  6
Continuous
 62
               7
100
AcDbVertex
100
AcDb2dVertex
 10
-1679.839783363228
 20
1147.2064067810386
 30
0.0
  0
VERTEX
  5
146
100
AcDbEntity
  8
寸法
370
              15
390
0
  6
Continuous
 62
               7
100
AcDbVertex
100
AcDb2dVertex
 10
-1699.839783363228
 20
1147.2064067810386
 30
0.0
  0
SEQEND
  5
147
100
AcDbEntity
  8
寸法
370
              15
390
0
  6
Continuous
 62
               7
  0
POLYLINE
  5
149
100
AcDbEntity
  8
0
370
              15
390
0
  6
Continuous
 62
               7
100
AcDb2dPolyline
 66
               1
 10
0.0
 20
0.0
 30
0.0
 70
               1
 75
               5
  0
VERTEX
  5
14A
100
AcDbEntity
  8
0
370
              15
390
0
  6
Continuous
 62
               7
100
AcDbVertex
100
AcDb2dVertex
 10
-3334.464422810639
 20
-633.74859039014461
 30
0.0
  0
VERTEX
  5
14B
100
AcDbEntity
  8
0
370
              15
390
0
  6
Continuous
 62
               7
100
AcDbVertex
100
AcDb2dVertex
 10
-2979.464422810639
 20
-633.74859039014461
 30
0.0
  0
VERTEX
  5
14C
100
AcDbEntity
  8
0
370
              15
390
0
  6
Continuous
 62
               7
100
AcDbVertex
100
AcDb2dVertex
 10
-2979.464422810639
 20
-708.74859039014461
 30
0.0
  0
VERTEX
  5
14D
100
AcDbEntity
  8
0
370
              15
390
0
  6
Continuous
 62
               7
100
AcDbVertex
100
AcDb2dVertex
 10
-3334.464422810639
 20
-708.74859039014461
 30
0.0
  0
SEQEND
  5
14E
100
AcDbEntity
  8
0
370
              15
390
0
  6
Continuous
 62
               7
  0
POLYLINE
  5
150
100
AcDbEntity
  8
0
370
              15
390
0
  6
Continuous
 62
               7
100
AcDb2dPolyline
 66
               1
 10
0.0
 20
0.0
 30
0.0
 70
               1
 75
               5
  0
VERTEX
  5
151
100
AcDbEntity
  8
0
370
              15
390
0
  6
Continuous
 62
               7
100
AcDbVertex
100
AcDb2dVertex
 10
-2961.035560008324
 20
-623.74859039014473
 30
0.0
  0
VERTEX
  5
152
100
AcDbEntity
  8
0
370
              15
390
0
  6
Continuous
 62
               7
100
AcDbVertex
100
AcDb2dVertex
 10
-2751.035560008324
 20
-623.74859039014473
 30
0.0
  0
VERTEX
  5
153
100
AcDbEntity
  8
0
370
              15
390
0
  6
Continuous
 62
               7
100
AcDbVertex
100
AcDb2dVertex
 10
-2751.035560008324
 20
-693.74859039014473
 30
0.0
  0
VERTEX
  5
154
100
AcDbEntity
  8
0
370
              15
390
0
  6
Continuous
 62
               7
100
AcDbVertex
100
AcDb2dVertex
 10
-2961.035560008324
 20
-693.74859039014473
 30
0.0
  0
SEQEND
  5
155
100
AcDbEntity
  8
0
370
              15
390
0
  6
Continuous
 62
               7
  0
LINE
  5
157
100
AcDbEntity
  8
0
370
              15
390
0
  6
Continuous
 62
               7
100
AcDbLine
 10
-3334.4999914094815
 20
-652.000432525615
 30
0.0
 11
-2979.464422810639
 21
-652.000432525615
 31
0.0
  0
LINE
  5
158
100
AcDbEntity
  8
0
370
              15
390
0
  6
Continuous
 62
               7
100
AcDbLine
 10
-3334.4999914094815
 20
-670.75043252561488
 30
0.0
 11
-2979.464422810639
 21
-670.75043252561488
 31
0.0
  0
LINE
  5
159
100
AcDbEntity
  8
0
370
              15
390
0
  6
Continuous
 62
               7
100
AcDbLine
 10
-3334.4999914094815
 20
-689.50043252561477
 30
0.0
 11
-2979.464422810639
 21
-689.50043252561477
 31
0.0
  0
WIPEOUT
  5
15A
100
AcDbEntity
  8
0
370
              15
390
0
  6
Continuous
 62
               7
 92
        0
100
AcDbWipeout
 90
        0
 10
-3083.9999914094815
 20
-708.74859039014461
 30
0.0
 11
75.0
 21
0.0
 31
0.0
 12
0.0
 22
75.0
 32
0.0
 13
1.0
 23
1.0
340
0
 70
               7
280
               1
281
              50
282
              50
283
               0
360
0
 71
               2
 91
        5
 14
-0.5
 24
-0.5
 14
-0.3666666666666667
 24
-0.5
 14
-0.3666666666666667
 24
0.5
 14
-0.5
 24
0.5
 14
-0.5
 24
-0.5
  0
POLYLINE
  5
15B
100
AcDbEntity
  8
0
370
              15
390
0
  6
Continuous
 62
               7
100
AcDb2dPolyline
 66
               1
 10
0.0
 20
0.0
 30
0.0
 70
               1
 75
               5
  0
VERTEX
  5
15C
100
AcDbEntity
  8
0
370
              15
390
0
  6
Continuous
 62
               7
100
AcDbVertex
100
AcDb2dVertex
 10
-3083.9999914094815
 20
-633.74859039014461
 30
0.0
  0
VERTEX
  5
15D
100
AcDbEntity
  8
0
370
              15
390
0
  6
Continuous
 62
               7
100
AcDbVertex
100
AcDb2dVertex
 10
-3073.9999914094815
 20
-633.74859039014461
 30
0.0
  0
VERTEX
  5
15E
100
AcDbEntity
  8
0
370
              15
390
0
  6
Continuous
 62
               7
100
AcDbVertex
100
AcDb2dVertex
 10
-3073.9999914094815
 20
-708.74859039014461
 30
0.0
  0
VERTEX
  5
15F
100
AcDbEntity
  8
0
370
              15
390
0
  6
Continuous
 62
               7
100
AcDbVertex
100
AcDb2dVertex
 10
-3083.9999914094815
 20
-708.74859039014461
 30
0.0
  0
SEQEND
  5
160
100
AcDbEntity
  8
0
370
              15
390
0
  6
Continuous
 62
               7
  0
LINE
  5
162
100
AcDbEntity
  8
一般
370
              15
390
0
  6
Continuous
 62
               7
100
AcDbLine
 10
-3334.0872190117025
 20
-728.78874134441241
 30
0.0
 11
-2771.0872190117025
 21
-728.78874134441241
 31
0.0
  0
LINE
  5
163
100
AcDbEntity
  8
一般
370
              15
390
0
  6
Continuous
 62
               7
100
AcDbLine
 10
-3334.0872190117025
 20
-788.78874134441241
 30
0.0
 11
-2771.0872190117025
 21
-788.78874134441241
 31
0.0
  0
LINE
  5
164
100
AcDbEntity
  8
0
370
              15
390
0
  6
Continuous
 62
               7
100
AcDbLine
 10
-3333.9999914094815
 20
-728.84334519095307
 30
0.0
 11
-3333.9999914094815
 21
-788.84334519095307
 31
0.0
  0
LINE
  5
165
100
AcDbEntity
  8
0
370
              15
390
0
  6
Continuous
 62
               7
100
AcDbLine
 10
-2770.5278967556615
 20
-728.84334519095307
 30
0.0
 11
-2770.5278967556615
 21
-788.84334519095307
 31
0.0
  0
LINE
  5
166
100
AcDbEntity
  8
一般
370
              15
390
0
  6
Continuous
 62
               7
100
AcDbLine
 10
-3334.0872190117025
 20
-748.78874134441241
 30
0.0
 11
-2771.0872190117025
 21
-748.78874134441241
 31
0.0
  0
LINE
  5
167
100
AcDbEntity
  8
一般
370
              15
390
0
  6
Continuous
 62
               7
100
AcDbLine
 10
-3334.0872190117025
 20
-768.78874134441241
 30
0.0
 11
-2771.0872190117025
 21
-768.78874134441241
 31
0.0
  0
WIPEOUT
  5
168
100
AcDbEntity
  8
0
370
              15
390
0
  6
Continuous
 62
               7
 92
        0
100
AcDbWipeout
 90
        0
 10
-3083.9999914094815
 20
-789.00151856944501
 30
0.0
 11
60.0
 21
0.0
 31
0.0
 12
0.0
 22
60.0
 32
0.0
 13
1.0
 23
1.0
340
0
 70
               7
280
               1
281
              50
282
              50
283
               0
360
0
 71
               2
 91
        5
 14
-0.5
 24
-0.5
 14
-0.3333333333333334
 24
-0.5
 14
-0.3333333333333334
 24
0.5
 14
-0.5
 24
0.5
 14
-0.5
 24
-0.5
  0
POLYLINE
  5
169
100
AcDbEntity
  8
0
370
              15
390
0
  6
Continuous
 62
               7
100
AcDb2dPolyline
 66
               1
 10
0.0
 20
0.0
 30
0.0
 70
               1
 75
               5
  0
VERTEX
  5
16A
100
AcDbEntity
  8
0
370
              15
390
0
  6
Continuous
 62
               7
100
AcDbVertex
100
AcDb2dVertex
 10
-3083.9999914094815
 20
-729.00151856944501
 30
0.0
  0
VERTEX
  5
16B
100
AcDbEntity
  8
0
370
              15
390
0
  6
Continuous
 62
               7
100
AcDbVertex
100
AcDb2dVertex
 10
-3073.9999914094815
 20
-729.00151856944501
 30
0.0
  0
VERTEX
  5
16C
100
AcDbEntity
  8
0
370
              15
390
0
  6
Continuous
 62
               7
100
AcDbVertex
100
AcDb2dVertex
 10
-3073.9999914094815
 20
-789.00151856944501
 30
0.0
  0
VERTEX
  5
16D
100
AcDbEntity
  8
0
370
              15
390
0
  6
Continuous
 62
               7
100
AcDbVertex
100
AcDb2dVertex
 10
-3083.9999914094815
 20
-789.00151856944501
 30
0.0
  0
SEQEND
  5
16E
100
AcDbEntity
  8
0
370
              15
390
0
  6
Continuous
 62
               7
  0
WIPEOUT
  5
170
100
AcDbEntity
  8
寸法
370
              15
390
0
  6
Continuous
 62
               7
 92
        0
100
AcDbWipeout
 90
        0
 10
-2950.4999914094815
 20
1168.1020509625121
 30
0.0
 11
188.12518006874143
 21
0.0
 31
0.0
 12
0.0
 22
188.12518006874143
 32
0.0
 13
1.0
 23
1.0
340
0
 70
               7
280
               1
281
              50
282
              50
283
               0
360
0
 71
               2
 91
        5
 14
-0.5
 24
0.2501663520915898
 14
0.5
 24
0.2501663520915898
 14
0.5
 24
0.5
 14
-0.5
 24
0.5
 14
-0.5
 24
0.2501663520915898
  0
POLYLINE
  5
171
100
AcDbEntity
  8
寸法
370
              15
390
0
  6
Continuous
 62
               7
100
AcDb2dPolyline
 66
               1
 10
0.0
 20
0.0
 30
0.0
 70
               1
 75
               5
  0
VERTEX
  5
172
100
AcDbEntity
  8
寸法
370
              15
390
0
  6
Continuous
 62
               7
100
AcDbVertex
100
AcDb2dVertex
 10
-2950.4999914094815
 20
1215.1020509625123
 30
0.0
  0
VERTEX
  5
173
100
AcDbEntity
  8
寸法
370
              15
390
0
  6
Continuous
 62
               7
100
AcDbVertex
100
AcDb2dVertex
 10
-2762.3748113407401
 20
1215.1020509625123
 30
0.0
  0
VERTEX
  5
174
100
AcDbEntity
  8
寸法
370
              15
390
0
  6
Continuous
 62
               7
100
AcDbVertex
100
AcDb2dVertex
 10
-2762.3748113407401
 20
1168.1020509625121
 30
0.0
  0
VERTEX
  5
175
100
AcDbEntity
  8
寸法
370
              15
390
0
  6
Continuous
 62
               7
100
AcDbVertex
100
AcDb2dVertex
 10
-2950.4999914094815
 20
1168.1020509625121
 30
0.0
  0
SEQEND
  5
176
100
AcDbEntity
  8
寸法
370
              15
390
0
  6
Continuous
 62
               7
  0
POLYLINE
  5
178
100
AcDbEntity
  8
0
370
              15
390
0
  6
Continuous
 62
               7
100
AcDb2dPolyline
 66
               1
 10
0.0
 20
0.0
 30
0.0
 70
               1
 75
               5
  0
VERTEX
  5
179
100
AcDbEntity
  8
0
370
              15
390
0
  6
Continuous
 62
               7
100
AcDbVertex
100
AcDb2dVertex
 10
-2961.1897755453274
 20
1227.2159158630768
 30
0.0
  0
VERTEX
  5
17A
100
AcDbEntity
  8
0
370
              15
390
0
  6
Continuous
 62
               7
100
AcDbVertex
100
AcDb2dVertex
 10
-2751.1897755453274
 20
1227.2159158630768
 30
0.0
  0
VERTEX
  5
17B
100
AcDbEntity
  8
0
370
              15
390
0
  6
Continuous
 62
               7
100
AcDbVertex
100
AcDb2dVertex
 10
-2751.1897755453274
 20
1157.2159158630764
 30
0.0
  0
VERTEX
  5
17C
100
AcDbEntity
  8
0
370
              15
390
0
  6
Continuous
 62
               7
100
AcDbVertex
100
AcDb2dVertex
 10
-2961.1897755453274
 20
1157.2159158630764
 30
0.0
  0
SEQEND
  5
17D
100
AcDbEntity
  8
0
370
              15
390
0
  6
Continuous
 62
               7
  0
POLYLINE
  5
17F
100
AcDbEntity
  8
0
370
              15
390
0
  6
Continuous
 62
               7
100
AcDb2dPolyline
 66
               1
 10
0.0
 20
0.0
 30
0.0
 70
               1
 75
               5
  0
VERTEX
  5
180
100
AcDbEntity
  8
0
370
              15
390
0
  6
Continuous
 62
               7
100
AcDbVertex
100
AcDb2dVertex
 10
-2954.1897755453274
 20
1220.2159158630766
 30
0.0
  0
VERTEX
  5
181
100
AcDbEntity
  8
0
370
              15
390
0
  6
Continuous
 62
               7
100
AcDbVertex
100
AcDb2dVertex
 10
-2758.1897755453274
 20
1220.2159158630766
 30
0.0
  0
VERTEX
  5
182
100
AcDbEntity
  8
0
370
              15
390
0
  6
Continuous
 62
               7
100
AcDbVertex
100
AcDb2dVertex
 10
-2758.1897755453274
 20
1164.2159158630764
 30
0.0
  0
VERTEX
  5
183
100
AcDbEntity
  8
0
370
              15
390
0
  6
Continuous
 62
               7
100
AcDbVertex
100
AcDb2dVertex
 10
-2954.1897755453274
 20
1164.2159158630764
 30
0.0
  0
SEQEND
  5
184
100
AcDbEntity
  8
0
370
              15
390
0
  6
Continuous
 62
               7
  0
POLYLINE
  5
186
100
AcDbEntity
  8
0
370
              15
390
0
  6
Continuous
 62
               7
100
AcDb2dPolyline
 66
               1
 10
0.0
 20
0.0
 30
0.0
 70
               1
 75
               5
  0
VERTEX
  5
187
100
AcDbEntity
  8
0
370
              15
390
0
  6
Continuous
 62
               7
100
AcDbVertex
100
AcDb2dVertex
 10
-3353.9338367734854
 20
1227.2159158630768
 30
0.0
  0
VERTEX
  5
188
100
AcDbEntity
  8
0
370
              15
390
0
  6
Continuous
 62
               7
100
AcDbVertex
100
AcDb2dVertex
 10
-3143.9338367734854
 20
1227.2159158630768
 30
0.0
  0
VERTEX
  5
189
100
AcDbEntity
  8
0
370
              15
390
0
  6
Continuous
 62
               7
100
AcDbVertex
100
AcDb2dVertex
 10
-3143.9338367734854
 20
1157.2159158630764
 30
0.0
  0
VERTEX
  5
18A
100
AcDbEntity
  8
0
370
              15
390
0
  6
Continuous
 62
               7
100
AcDbVertex
100
AcDb2dVertex
 10
-3353.9338367734854
 20
1157.2159158630764
 30
0.0
  0
SEQEND
  5
18B
100
AcDbEntity
  8
0
370
              15
390
0
  6
Continuous
 62
               7
  0
WIPEOUT
  5
18D
100
AcDbEntity
  8
0
370
              15
390
0
  6
Continuous
 62
               7
 92
        0
100
AcDbWipeout
 90
        0
 10
-3181.9699083670475
 20
1147.1507667468329
 30
0.0
 11
260.0
 21
0.0
 31
0.0
 12
0.0
 22
260.0
 32
0.0
 13
1.0
 23
1.0
340
0
 70
               7
280
               1
281
              50
282
              50
283
               0
360
0
 71
               2
 91
        5
 14
-0.5
 24
0.2884615384615376
 14
0.5
 24
0.2884615384615376
 14
0.5
 24
0.5
 14
-0.5
 24
0.5
 14
-0.5
 24
0.2884615384615376
  0
POLYLINE
  5
18E
100
AcDbEntity
  8
0
370
              15
390
0
  6
Continuous
 62
               7
100
AcDb2dPolyline
 66
               1
 10
0.0
 20
0.0
 30
0.0
 70
               1
 75
               5
  0
VERTEX
  5
18F
100
AcDbEntity
  8
0
370
              15
390
0
  6
Continuous
 62
               7
100
AcDbVertex
100
AcDb2dVertex
 10
-3181.9699083670475
 20
1202.1507667468331
 30
0.0
  0
VERTEX
  5
190
100
AcDbEntity
  8
0
370
              15
390
0
  6
Continuous
 62
               7
100
AcDbVertex
100
AcDb2dVertex
 10
-2921.9699083670475
 20
1202.1507667468331
 30
0.0
  0
VERTEX
  5
191
100
AcDbEntity
  8
0
370
              15
390
0
  6
Continuous
 62
               7
100
AcDbVertex
100
AcDb2dVertex
 10
-2921.9699083670475
 20
1147.1507667468329
 30
0.0
  0
VERTEX
  5
192
100
AcDbEntity
  8
0
370
              15
390
0
  6
Continuous
 62
               7
100
AcDbVertex
100
AcDb2dVertex
 10
-3181.9699083670475
 20
1147.1507667468329
 30
0.0
  0
SEQEND
  5
193
100
AcDbEntity
  8
0
370
              15
390
0
  6
Continuous
 62
               7
  0
WIPEOUT
  5
195
100
AcDbEntity
  8
寸法
370
              15
390
0
  6
Continuous
 62
               7
 92
        0
100
AcDbWipeout
 90
        0
 10
-2950.4999914094815
 20
-682.11188130156597
 30
0.0
 11
188.12518006874143
 21
0.0
 31
0.0
 12
0.0
 22
188.12518006874143
 32
0.0
 13
1.0
 23
1.0
340
0
 70
               7
280
               1
281
              50
282
              50
283
               0
360
0
 71
               2
 91
        5
 14
-0.5
 24
0.2501663520915909
 14
0.5
 24
0.2501663520915909
 14
0.5
 24
0.5
 14
-0.5
 24
0.5
 14
-0.5
 24
0.2501663520915909
  0
POLYLINE
  5
196
100
AcDbEntity
  8
寸法
370
              15
390
0
  6
Continuous
 62
               7
100
AcDb2dPolyline
 66
               1
 10
0.0
 20
0.0
 30
0.0
 70
               1
 75
               5
  0
VERTEX
  5
197
100
AcDbEntity
  8
寸法
370
              15
390
0
  6
Continuous
 62
               7
100
AcDbVertex
100
AcDb2dVertex
 10
-2950.4999914094815
 20
-635.11188130156597
 30
0.0
  0
VERTEX
  5
198
100
AcDbEntity
  8
寸法
370
              15
390
0
  6
Continuous
 62
               7
100
AcDbVertex
100
AcDb2dVertex
 10
-2762.3748113407401
 20
-635.11188130156597
 30
0.0
  0
VERTEX
  5
199
100
AcDbEntity
  8
寸法
370
              15
390
0
  6
Continuous
 62
               7
100
AcDbVertex
100
AcDb2dVertex
 10
-2762.3748113407401
 20
-682.11188130156597
 30
0.0
  0
VERTEX
  5
19A
100
AcDbEntity
  8
寸法
370
              15
390
0
  6
Continuous
 62
               7
100
AcDbVertex
100
AcDb2dVertex
 10
-2950.4999914094815
 20
-682.11188130156597
 30
0.0
  0
SEQEND
  5
19B
100
AcDbEntity
  8
寸法
370
              15
390
0
  6
Continuous
 62
               7
  0
CIRCLE
  5
19D
102
{ACAD_REACTORS
330
19E
102
}
100
AcDbEntity
  8
0
370
               5
390
0
  6
Continuous
 62
               7
100
AcDbCircle
 10
-2190.4999914094815
 20
-882.71829369584327
 30
0.0
 40
14.999999999999805
  0
HATCH
  5
19E
100
AcDbEntity
  8
0
370
               0
390
0
  6
Continuous
 62
               7
100
AcDbHatch
 10
0.0
 20
0.0
 30
0.0
210
0.0
220
0.0
230
1.0
  2
SOLID
 70
               1
 71
               1
 91
        1
 92
        1
 93
        1
 72
               2
 10
-2190.4999914094815
 20
-882.71829369584327
 40
14.999999999999805
 50
0.0
 51
360.0
 73
               0
 97
        1
330
19D
 75
               0
 76
               1
 98
        1
 10
0.0
 20
0.0
  0
WIPEOUT
  5
19F
100
AcDbEntity
  8
0
370
               5
390
0
  6
Continuous
 62
               7
 92
        0
100
AcDbWipeout
 90
        0
 10
-2207.9999914094815
 20
-873.58697804665132
 30
0.0
 11
34.5
 21
0.0
 31
0.0
 12
0.0
 22
34.5
 32
0.0
 13
1.0
 23
1.0
340
0
 70
               7
280
               1
281
              50
282
              50
283
               0
360
0
 71
               2
 91
        5
 14
-0.5
 24
0.0507246376811594
 14
0.5
 24
0.0507246376811594
 14
0.5
 24
0.5
 14
-0.5
 24
0.5
 14
-0.5
 24
0.0507246376811594
  0
LINE
  5
1A0
100
AcDbEntity
  8
一般
370
              18
390
0
  6
Continuous
 62
               7
100
AcDbLine
 10
885.06927216071551
 20
-623.8106422638283
 30
0.0
 11
885.06927216071551
 21
-718.81064226382784
 31
0.0
  0
LINE
  5
1A1
100
AcDbEntity
  8
一般
370
              18
390
0
  6
Continuous
 62
               7
100
AcDbLine
 10
859.01026846717332
 20
-718.86745693456407
 30
0.0
 11
859.01026846717332
 21
-798.86745693456407
 31
0.0
  0
LINE
  5
1A2
100
AcDbEntity
  8
一般
370
              18
390
0
  6
Continuous
 62
               7
100
AcDbLine
 10
835.88407754587638
 20
-798.95269210417553
 30
0.0
 11
835.88407754587638
 21
-873.95269210417553
 31
0.0
  0
LINE
  5
1A3
100
AcDbEntity
  8
一般
370
              18
390
0
  6
Continuous
 62
               7
100
AcDbLine
 10
835.88407754587638
 20
-873.7636747335813
 30
0.0
 11
363.34220676689097
 21
-873.7636747335813
 31
0.0
  0
LINE
  5
1A4
100
AcDbEntity
  8
一般
370
              18
390
0
  6
Continuous
 62
               7
100
AcDbLine
 10
363.34220676689097
 20
-873.56281965638789
 30
0.0
 11
363.34220676689051
 21
-623.78874134441287
 31
0.0
  0
POLYLINE
  5
1A5
100
AcDbEntity
  8
寸法
370
              15
390
0
  6
Continuous
 62
               7
100
AcDb2dPolyline
 66
               1
 10
0.0
 20
0.0
 30
0.0
 70
               1
 75
               5
  0
VERTEX
  5
1A6
100
AcDbEntity
  8
寸法
370
              15
390
0
  6
Continuous
 62
               7
100
AcDbVertex
100
AcDb2dVertex
 10
807.49936787259196
 20
-894.20469296431236
 30
0.0
  0
VERTEX
  5
1A7
100
AcDbEntity
  8
寸法
370
              15
390
0
  6
Continuous
 62
               7
100
AcDbVertex
100
AcDb2dVertex
 10
837.49936787259207
 20
-894.20469296431236
 30
0.0
  0
VERTEX
  5
1A8
100
AcDbEntity
  8
寸法
370
              15
390
0
  6
Continuous
 62
               7
100
AcDbVertex
100
AcDb2dVertex
 10
837.49936787259207
 20
-897.70469296431236
 30
0.0
  0
VERTEX
  5
1A9
100
AcDbEntity
  8
寸法
370
              15
390
0
  6
Continuous
 62
               7
100
AcDbVertex
100
AcDb2dVertex
 10
807.49936787259196
 20
-897.70469296431236
 30
0.0
  0
SEQEND
  5
1AA
100
AcDbEntity
  8
寸法
370
              15
390
0
  6
Continuous
 62
               7
  0
WIPEOUT
  5
1AC
100
AcDbEntity
  8
寸法
370
              15
390
0
  6
Continuous
 62
               7
 92
        0
100
AcDbWipeout
 90
        0
 10
815.84184663082465
 20
-894.20469296431236
 30
0.0
 11
20.471841620039868
 21
0.0
 31
0.0
 12
0.0
 22
20.471841620039868
 32
0.0
 13
1.0
 23
1.0
340
0
 70
               7
280
               1
281
              50
282
              50
283
               0
360
0
 71
               2
 91
        5
 14
-0.5
 24
-0.5
 14
0.1350185899872491
 24
-0.5
 14
0.1350185899872491
 24
0.5
 14
-0.5
 24
0.5
 14
-0.5
 24
-0.5
  0
POLYLINE
  5
1AD
100
AcDbEntity
  8
寸法
370
              15
390
0
  6
Continuous
 62
               7
100
AcDb2dPolyline
 66
               1
 10
0.0
 20
0.0
 30
0.0
 70
               1
 75
               5
  0
VERTEX
  5
1AE
100
AcDbEntity
  8
寸法
370
              15
390
0
  6
Continuous
 62
               7
100
AcDbVertex
100
AcDb2dVertex
 10
815.84184663082465
 20
-873.73285134427249
 30
0.0
  0
VERTEX
  5
1AF
100
AcDbEntity
  8
寸法
370
              15
390
0
  6
Continuous
 62
               7
100
AcDbVertex
100
AcDb2dVertex
 10
828.84184663082465
 20
-873.73285134427249
 30
0.0
  0
VERTEX
  5
1B0
100
AcDbEntity
  8
寸法
370
              15
390
0
  6
Continuous
 62
               7
100
AcDbVertex
100
AcDb2dVertex
 10
828.84184663082465
 20
-894.20469296431236
 30
0.0
  0
VERTEX
  5
1B1
100
AcDbEntity
  8
寸法
370
              15
390
0
  6
Continuous
 62
               7
100
AcDbVertex
100
AcDb2dVertex
 10
815.84184663082465
 20
-894.20469296431236
 30
0.0
  0
SEQEND
  5
1B2
100
AcDbEntity
  8
寸法
370
              15
390
0
  6
Continuous
 62
               7
  0
LINE
  5
1B4
100
AcDbEntity
  8
一般
370
              18
390
0
  6
Continuous
 62
               7
100
AcDbLine
 10
884.88407754587752
 20
-718.7636747335813
 30
0.0
 11
858.88407754587695
 21
-718.7636747335813
 31
0.0
  0
LINE
  5
1B5
100
AcDbEntity
  8
一般
370
              18
390
0
  6
Continuous
 62
               7
100
AcDbLine
 10
858.88407754587695
 20
-798.7636747335813
 30
0.0
 11
835.88407754587638
 21
-798.7636747335813
 31
0.0
  0
CIRCLE
  5
1B6
102
{ACAD_REACTORS
330
1B7
102
}
100
AcDbEntity
  8
0
370
               5
390
0
  6
Continuous
 62
               7
100
AcDbCircle
 10
428.26748254443226
 20
-882.71829369584327
 30
0.0
 40
14.999999999999707
  0
HATCH
  5
1B7
100
AcDbEntity
  8
0
370
               0
390
0
  6
Continuous
 62
               7
100
AcDbHatch
 10
0.0
 20
0.0
 30
0.0
210
0.0
220
0.0
230
1.0
  2
SOLID
 70
               1
 71
               1
 91
        1
 92
        1
 93
        1
 72
               2
 10
428.26748254443226
 20
-882.71829369584327
 40
14.999999999999707
 50
0.0
 51
360.0
 73
               0
 97
        1
330
1B6
 75
               0
 76
               1
 98
        1
 10
0.0
 20
0.0
  0
WIPEOUT
  5
1B8
100
AcDbEntity
  8
0
370
               5
390
0
  6
Continuous
 62
               7
 92
        0
100
AcDbWipeout
 90
        0
 10
410.76748254443271
 20
-873.58697804665132
 30
0.0
 11
34.500000000000114
 21
0.0
 31
0.0
 12
0.0
 22
34.500000000000114
 32
0.0
 13
1.0
 23
1.0
340
0
 70
               7
280
               1
281
              50
282
              50
283
               0
360
0
 71
               2
 91
        5
 14
-0.5
 24
0.0507246376811609
 14
0.5
 24
0.0507246376811609
 14
0.5
 24
0.5
 14
-0.5
 24
0.5
 14
-0.5
 24
0.0507246376811609
  0
POLYLINE
  5
1B9
100
AcDbEntity
  8
0
370
              15
390
0
  6
Continuous
 62
               7
100
AcDb2dPolyline
 66
               1
 10
0.0
 20
0.0
 30
0.0
 70
               1
 75
               5
  0
VERTEX
  5
1BA
100
AcDbEntity
  8
0
370
              15
390
0
  6
Continuous
 62
               7
100
AcDbVertex
100
AcDb2dVertex
 10
-687.24522169744023
 20
823.39066151379348
 30
0.0
  0
VERTEX
  5
1BB
100
AcDbEntity
  8
0
370
              15
390
0
  6
Continuous
 62
               7
100
AcDbVertex
100
AcDb2dVertex
 10
-673.24521169744003
 20
823.39066151379348
 30
0.0
  0
VERTEX
  5
1BC
100
AcDbEntity
  8
0
370
              15
390
0
  6
Continuous
 62
               7
100
AcDbVertex
100
AcDb2dVertex
 10
-673.24521169744003
 20
800.38966151379327
 30
0.0
  0
VERTEX
  5
1BD
100
AcDbEntity
  8
0
370
              15
390
0
  6
Continuous
 62
               7
100
AcDbVertex
100
AcDb2dVertex
 10
-687.24522169744023
 20
800.38966151379327
 30
0.0
  0
SEQEND
  5
1BE
100
AcDbEntity
  8
0
370
              15
390
0
  6
Continuous
 62
               7
  0
POLYLINE
  5
1C0
100
AcDbEntity
  8
0
370
              15
390
0
  6
Continuous
 62
               7
100
AcDb2dPolyline
 66
               1
 10
0.0
 20
0.0
 30
0.0
 70
               1
 75
               5
  0
VERTEX
  5
1C1
100
AcDbEntity
  8
0
370
              15
390
0
  6
Continuous
 62
               7
100
AcDbVertex
100
AcDb2dVertex
 10
-686.24660018802388
 20
800.39041384084931
 30
0.0
  0
VERTEX
  5
1C2
100
AcDbEntity
  8
0
370
              15
390
0
  6
Continuous
 62
               7
100
AcDbVertex
100
AcDb2dVertex
 10
-674.25660018802409
 20
800.39041384084931
 30
0.0
  0
VERTEX
  5
1C3
100
AcDbEntity
  8
0
370
              15
390
0
  6
Continuous
 62
               7
100
AcDbVertex
100
AcDb2dVertex
 10
-674.25660018802409
 20
799.39041384084931
 30
0.0
  0
VERTEX
  5
1C4
100
AcDbEntity
  8
0
370
              15
390
0
  6
Continuous
 62
               7
100
AcDbVertex
100
AcDb2dVertex
 10
-686.24660018802388
 20
799.39041384084931
 30
0.0
  0
SEQEND
  5
1C5
100
AcDbEntity
  8
0
370
              15
390
0
  6
Continuous
 62
               7
  0
POLYLINE
  5
1C7
100
AcDbEntity
  8
0
370
              15
390
0
  6
Continuous
 62
               7
100
AcDb2dPolyline
 66
               1
 10
0.0
 20
0.0
 30
0.0
 70
               1
 75
               5
  0
VERTEX
  5
1C8
100
AcDbEntity
  8
0
370
              15
390
0
  6
Continuous
 62
               7
100
AcDbVertex
100
AcDb2dVertex
 10
-687.24522169744023
 20
799.39066151379234
 30
0.0
  0
VERTEX
  5
1C9
100
AcDbEntity
  8
0
370
              15
390
0
  6
Continuous
 62
               7
100
AcDbVertex
100
AcDb2dVertex
 10
-673.24521169744003
 20
799.39066151379234
 30
0.0
  0
VERTEX
  5
1CA
100
AcDbEntity
  8
0
370
              15
390
0
  6
Continuous
 62
               7
100
AcDbVertex
100
AcDb2dVertex
 10
-673.24521169744003
 20
230.39066151379239
 30
0.0
  0
VERTEX
  5
1CB
100
AcDbEntity
  8
0
370
              15
390
0
  6
Continuous
 62
               7
100
AcDbVertex
100
AcDb2dVertex
 10
-687.24522169744023
 20
230.39066151379239
 30
0.0
  0
SEQEND
  5
1CC
100
AcDbEntity
  8
0
370
              15
390
0
  6
Continuous
 62
               7
  0
POLYLINE
  5
1CE
100
AcDbEntity
  8
0
370
              15
390
0
  6
Continuous
 62
               7
100
AcDb2dPolyline
 66
               1
 10
0.0
 20
0.0
 30
0.0
 70
               1
 75
               5
  0
VERTEX
  5
1CF
100
AcDbEntity
  8
0
370
              15
390
0
  6
Continuous
 62
               7
100
AcDbVertex
100
AcDb2dVertex
 10
-687.24522169744023
 20
229.39066151379239
 30
0.0
  0
VERTEX
  5
1D0
100
AcDbEntity
  8
0
370
              15
390
0
  6
Continuous
 62
               7
100
AcDbVertex
100
AcDb2dVertex
 10
-673.24521169744003
 20
229.39066151379239
 30
0.0
  0
VERTEX
  5
1D1
100
AcDbEntity
  8
0
370
              15
390
0
  6
Continuous
 62
               7
100
AcDbVertex
100
AcDb2dVertex
 10
-673.24521169744003
 20
206.39066151379239
 30
0.0
  0
VERTEX
  5
1D2
100
AcDbEntity
  8
0
370
              15
390
0
  6
Continuous
 62
               7
100
AcDbVertex
100
AcDb2dVertex
 10
-687.24522169744023
 20
206.39066151379239
 30
0.0
  0
SEQEND
  5
1D3
100
AcDbEntity
  8
0
370
              15
390
0
  6
Continuous
 62
               7
  0
POLYLINE
  5
1D5
100
AcDbEntity
  8
0
370
              15
390
0
  6
Continuous
 62
               7
100
AcDb2dPolyline
 66
               1
 10
0.0
 20
0.0
 30
0.0
 70
               1
 75
               5
  0
VERTEX
  5
1D6
100
AcDbEntity
  8
0
370
              15
390
0
  6
Continuous
 62
               7
100
AcDbVertex
100
AcDb2dVertex
 10
-687.24522169744023
 20
205.39066151378682
 30
0.0
  0
VERTEX
  5
1D7
100
AcDbEntity
  8
0
370
              15
390
0
  6
Continuous
 62
               7
100
AcDbVertex
100
AcDb2dVertex
 10
-673.24521169744003
 20
205.39066151378682
 30
0.0
  0
VERTEX
  5
1D8
100
AcDbEntity
  8
0
370
              15
390
0
  6
Continuous
 62
               7
100
AcDbVertex
100
AcDb2dVertex
 10
-673.24521169744003
 20
-363.60933848621318
 30
0.0
  0
VERTEX
  5
1D9
100
AcDbEntity
  8
0
370
              15
390
0
  6
Continuous
 62
               7
100
AcDbVertex
100
AcDb2dVertex
 10
-687.24522169744023
 20
-363.60933848621318
 30
0.0
  0
SEQEND
  5
1DA
100
AcDbEntity
  8
0
370
              15
390
0
  6
Continuous
 62
               7
  0
POLYLINE
  5
1DC
100
AcDbEntity
  8
0
370
              15
390
0
  6
Continuous
 62
               7
100
AcDb2dPolyline
 66
               1
 10
0.0
 20
0.0
 30
0.0
 70
               1
 75
               5
  0
VERTEX
  5
1DD
100
AcDbEntity
  8
0
370
              15
390
0
  6
Continuous
 62
               7
100
AcDbVertex
100
AcDb2dVertex
 10
-687.24522169744023
 20
-364.60933848621318
 30
0.0
  0
VERTEX
  5
1DE
100
AcDbEntity
  8
0
370
              15
390
0
  6
Continuous
 62
               7
100
AcDbVertex
100
AcDb2dVertex
 10
-673.24521169744003
 20
-364.60933848621318
 30
0.0
  0
VERTEX
  5
1DF
100
AcDbEntity
  8
0
370
              15
390
0
  6
Continuous
 62
               7
100
AcDbVertex
100
AcDb2dVertex
 10
-673.24521169744003
 20
-387.60933848621318
 30
0.0
  0
VERTEX
  5
1E0
100
AcDbEntity
  8
0
370
              15
390
0
  6
Continuous
 62
               7
100
AcDbVertex
100
AcDb2dVertex
 10
-687.24522169744023
 20
-387.60933848621318
 30
0.0
  0
SEQEND
  5
1E1
100
AcDbEntity
  8
0
370
              15
390
0
  6
Continuous
 62
               7
  0
POLYLINE
  5
1E3
100
AcDbEntity
  8
0
370
              15
390
0
  6
Continuous
 62
               7
100
AcDb2dPolyline
 66
               1
 10
0.0
 20
0.0
 30
0.0
 70
               1
 75
               5
  0
VERTEX
  5
1E4
100
AcDbEntity
  8
0
370
              15
390
0
  6
Continuous
 62
               7
100
AcDbVertex
100
AcDb2dVertex
 10
-686.24660018802388
 20
230.39041384084823
 30
0.0
  0
VERTEX
  5
1E5
100
AcDbEntity
  8
0
370
              15
390
0
  6
Continuous
 62
               7
100
AcDbVertex
100
AcDb2dVertex
 10
-674.25660018802409
 20
230.39041384084823
 30
0.0
  0
VERTEX
  5
1E6
100
AcDbEntity
  8
0
370
              15
390
0
  6
Continuous
 62
               7
100
AcDbVertex
100
AcDb2dVertex
 10
-674.25660018802409
 20
229.39041384084823
 30
0.0
  0
VERTEX
  5
1E7
100
AcDbEntity
  8
0
370
              15
390
0
  6
Continuous
 62
               7
100
AcDbVertex
100
AcDb2dVertex
 10
-686.24660018802388
 20
229.39041384084823
 30
0.0
  0
SEQEND
  5
1E8
100
AcDbEntity
  8
0
370
              15
390
0
  6
Continuous
 62
               7
  0
POLYLINE
  5
1EA
100
AcDbEntity
  8
0
370
              15
390
0
  6
Continuous
 62
               7
100
AcDb2dPolyline
 66
               1
 10
0.0
 20
0.0
 30
0.0
 70
               1
 75
               5
  0
VERTEX
  5
1EB
100
AcDbEntity
  8
0
370
              15
390
0
  6
Continuous
 62
               7
100
AcDbVertex
100
AcDb2dVertex
 10
-686.24660018802388
 20
206.39041384084823
 30
0.0
  0
VERTEX
  5
1EC
100
AcDbEntity
  8
0
370
              15
390
0
  6
Continuous
 62
               7
100
AcDbVertex
100
AcDb2dVertex
 10
-674.25660018802409
 20
206.39041384084823
 30
0.0
  0
VERTEX
  5
1ED
100
AcDbEntity
  8
0
370
              15
390
0
  6
Continuous
 62
               7
100
AcDbVertex
100
AcDb2dVertex
 10
-674.25660018802409
 20
205.39041384084823
 30
0.0
  0
VERTEX
  5
1EE
100
AcDbEntity
  8
0
370
              15
390
0
  6
Continuous
 62
               7
100
AcDbVertex
100
AcDb2dVertex
 10
-686.24660018802388
 20
205.39041384084823
 30
0.0
  0
SEQEND
  5
1EF
100
AcDbEntity
  8
0
370
              15
390
0
  6
Continuous
 62
               7
  0
POLYLINE
  5
1F1
100
AcDbEntity
  8
0
370
              15
390
0
  6
Continuous
 62
               7
100
AcDb2dPolyline
 66
               1
 10
0.0
 20
0.0
 30
0.0
 70
               1
 75
               5
  0
VERTEX
  5
1F2
100
AcDbEntity
  8
0
370
              15
390
0
  6
Continuous
 62
               7
100
AcDbVertex
100
AcDb2dVertex
 10
-686.24660018802388
 20
-363.60958615915735
 30
0.0
  0
VERTEX
  5
1F3
100
AcDbEntity
  8
0
370
              15
390
0
  6
Continuous
 62
               7
100
AcDbVertex
100
AcDb2dVertex
 10
-674.25660018802409
 20
-363.60958615915735
 30
0.0
  0
VERTEX
  5
1F4
100
AcDbEntity
  8
0
370
              15
390
0
  6
Continuous
 62
               7
100
AcDbVertex
100
AcDb2dVertex
 10
-674.25660018802409
 20
-364.60958615915735
 30
0.0
  0
VERTEX
  5
1F5
100
AcDbEntity
  8
0
370
              15
390
0
  6
Continuous
 62
               7
100
AcDbVertex
100
AcDb2dVertex
 10
-686.24660018802388
 20
-364.60958615915735
 30
0.0
  0
SEQEND
  5
1F6
100
AcDbEntity
  8
0
370
              15
390
0
  6
Continuous
 62
               7
  0
POLYLINE
  5
1F8
100
AcDbEntity
  8
0
370
              15
390
0
  6
Continuous
 62
               7
100
AcDb2dPolyline
 66
               1
 10
0.0
 20
0.0
 30
0.0
 70
               1
 75
               5
  0
VERTEX
  5
1F9
100
AcDbEntity
  8
0
370
              15
390
0
  6
Continuous
 62
               7
100
AcDbVertex
100
AcDb2dVertex
 10
995.31988528702675
 20
208.26413998977699
 30
0.0
  0
VERTEX
  5
1FA
100
AcDbEntity
  8
0
370
              15
390
0
  6
Continuous
 62
               7
100
AcDbVertex
100
AcDb2dVertex
 10
1009.3198952870292
 20
208.26413998977699
 30
0.0
  0
VERTEX
  5
1FB
100
AcDbEntity
  8
0
370
              15
390
0
  6
Continuous
 62
               7
100
AcDbVertex
100
AcDb2dVertex
 10
1009.3198952870292
 20
-360.73586001022301
 30
0.0
  0
VERTEX
  5
1FC
100
AcDbEntity
  8
0
370
              15
390
0
  6
Continuous
 62
               7
100
AcDbVertex
100
AcDb2dVertex
 10
995.31988528702675
 20
-360.73586001022301
 30
0.0
  0
SEQEND
  5
1FD
100
AcDbEntity
  8
0
370
              15
390
0
  6
Continuous
 62
               7
  0
POLYLINE
  5
1FF
100
AcDbEntity
  8
0
370
              15
390
0
  6
Continuous
 62
               7
100
AcDb2dPolyline
 66
               1
 10
0.0
 20
0.0
 30
0.0
 70
               1
 75
               5
  0
VERTEX
  5
200
100
AcDbEntity
  8
0
370
              15
390
0
  6
Continuous
 62
               7
100
AcDbVertex
100
AcDb2dVertex
 10
996.3185067964431
 20
209.26389231683339
 30
0.0
  0
VERTEX
  5
201
100
AcDbEntity
  8
0
370
              15
390
0
  6
Continuous
 62
               7
100
AcDbVertex
100
AcDb2dVertex
 10
1008.3085067964454
 20
209.26389231683339
 30
0.0
  0
VERTEX
  5
202
100
AcDbEntity
  8
0
370
              15
390
0
  6
Continuous
 62
               7
100
AcDbVertex
100
AcDb2dVertex
 10
1008.3085067964454
 20
208.26389231683339
 30
0.0
  0
VERTEX
  5
203
100
AcDbEntity
  8
0
370
              15
390
0
  6
Continuous
 62
               7
100
AcDbVertex
100
AcDb2dVertex
 10
996.3185067964431
 20
208.26389231683339
 30
0.0
  0
SEQEND
  5
204
100
AcDbEntity
  8
0
370
              15
390
0
  6
Continuous
 62
               7
  0
POLYLINE
  5
206
100
AcDbEntity
  8
0
370
              15
390
0
  6
Continuous
 62
               7
100
AcDb2dPolyline
 66
               1
 10
0.0
 20
0.0
 30
0.0
 70
               1
 75
               5
  0
VERTEX
  5
207
100
AcDbEntity
  8
0
370
              15
390
0
  6
Continuous
 62
               7
100
AcDbVertex
100
AcDb2dVertex
 10
996.3185067964431
 20
-360.73610768316718
 30
0.0
  0
VERTEX
  5
208
100
AcDbEntity
  8
0
370
              15
390
0
  6
Continuous
 62
               7
100
AcDbVertex
100
AcDb2dVertex
 10
1008.3085067964454
 20
-360.73610768316718
 30
0.0
  0
VERTEX
  5
209
100
AcDbEntity
  8
0
370
              15
390
0
  6
Continuous
 62
               7
100
AcDbVertex
100
AcDb2dVertex
 10
1008.3085067964454
 20
-361.73610768316718
 30
0.0
  0
VERTEX
  5
20A
100
AcDbEntity
  8
0
370
              15
390
0
  6
Continuous
 62
               7
100
AcDbVertex
100
AcDb2dVertex
 10
996.3185067964431
 20
-361.73610768316718
 30
0.0
  0
SEQEND
  5
20B
100
AcDbEntity
  8
0
370
              15
390
0
  6
Continuous
 62
               7
  0
POLYLINE
  5
20D
100
AcDbEntity
  8
0
370
              15
390
0
  6
Continuous
 62
               7
100
AcDb2dPolyline
 66
               1
 10
0.0
 20
0.0
 30
0.0
 70
               1
 75
               5
  0
VERTEX
  5
20E
100
AcDbEntity
  8
0
370
              15
390
0
  6
Continuous
 62
               7
100
AcDbVertex
100
AcDb2dVertex
 10
995.31988528702675
 20
802.16258142176957
 30
0.0
  0
VERTEX
  5
20F
100
AcDbEntity
  8
0
370
              15
390
0
  6
Continuous
 62
               7
100
AcDbVertex
100
AcDb2dVertex
 10
1009.3198952870292
 20
802.16258142176957
 30
0.0
  0
VERTEX
  5
210
100
AcDbEntity
  8
0
370
              15
390
0
  6
Continuous
 62
               7
100
AcDbVertex
100
AcDb2dVertex
 10
1009.3198952870292
 20
233.16258142176963
 30
0.0
  0
VERTEX
  5
211
100
AcDbEntity
  8
0
370
              15
390
0
  6
Continuous
 62
               7
100
AcDbVertex
100
AcDb2dVertex
 10
995.31988528702675
 20
233.16258142176963
 30
0.0
  0
SEQEND
  5
212
100
AcDbEntity
  8
0
370
              15
390
0
  6
Continuous
 62
               7
  0
POLYLINE
  5
214
100
AcDbEntity
  8
0
370
              15
390
0
  6
Continuous
 62
               7
100
AcDb2dPolyline
 66
               1
 10
0.0
 20
0.0
 30
0.0
 70
               1
 75
               5
  0
VERTEX
  5
215
100
AcDbEntity
  8
0
370
              15
390
0
  6
Continuous
 62
               7
100
AcDbVertex
100
AcDb2dVertex
 10
996.3185067964431
 20
803.16233374886383
 30
0.0
  0
VERTEX
  5
216
100
AcDbEntity
  8
0
370
              15
390
0
  6
Continuous
 62
               7
100
AcDbVertex
100
AcDb2dVertex
 10
1008.3085067964454
 20
803.16233374886383
 30
0.0
  0
VERTEX
  5
217
100
AcDbEntity
  8
0
370
              15
390
0
  6
Continuous
 62
               7
100
AcDbVertex
100
AcDb2dVertex
 10
1008.3085067964454
 20
802.16233374886383
 30
0.0
  0
VERTEX
  5
218
100
AcDbEntity
  8
0
370
              15
390
0
  6
Continuous
 62
               7
100
AcDbVertex
100
AcDb2dVertex
 10
996.3185067964431
 20
802.16233374886383
 30
0.0
  0
SEQEND
  5
219
100
AcDbEntity
  8
0
370
              15
390
0
  6
Continuous
 62
               7
  0
POLYLINE
  5
21B
100
AcDbEntity
  8
0
370
              15
390
0
  6
Continuous
 62
               7
100
AcDb2dPolyline
 66
               1
 10
0.0
 20
0.0
 30
0.0
 70
               1
 75
               5
  0
VERTEX
  5
21C
100
AcDbEntity
  8
0
370
              15
390
0
  6
Continuous
 62
               7
100
AcDbVertex
100
AcDb2dVertex
 10
996.3185067964431
 20
233.16233374882546
 30
0.0
  0
VERTEX
  5
21D
100
AcDbEntity
  8
0
370
              15
390
0
  6
Continuous
 62
               7
100
AcDbVertex
100
AcDb2dVertex
 10
1008.3085067964454
 20
233.16233374882546
 30
0.0
  0
VERTEX
  5
21E
100
AcDbEntity
  8
0
370
              15
390
0
  6
Continuous
 62
               7
100
AcDbVertex
100
AcDb2dVertex
 10
1008.3085067964454
 20
232.16233374882546
 30
0.0
  0
VERTEX
  5
21F
100
AcDbEntity
  8
0
370
              15
390
0
  6
Continuous
 62
               7
100
AcDbVertex
100
AcDb2dVertex
 10
996.3185067964431
 20
232.16233374882546
 30
0.0
  0
SEQEND
  5
220
100
AcDbEntity
  8
0
370
              15
390
0
  6
Continuous
 62
               7
  0
POLYLINE
  5
222
100
AcDbEntity
  8
0
370
              15
390
0
  6
Continuous
 62
               7
100
AcDb2dPolyline
 66
               1
 10
0.0
 20
0.0
 30
0.0
 70
               1
 75
               5
  0
VERTEX
  5
223
100
AcDbEntity
  8
0
370
              15
390
0
  6
Continuous
 62
               7
100
AcDbVertex
100
AcDb2dVertex
 10
960.35118640781673
 20
-361.78589981049805
 30
0.0
  0
VERTEX
  5
224
100
AcDbEntity
  8
0
370
              15
390
0
  6
Continuous
 62
               7
100
AcDbVertex
100
AcDb2dVertex
 10
1009.3511864078263
 20
-361.78589981049805
 30
0.0
  0
VERTEX
  5
225
100
AcDbEntity
  8
0
370
              15
390
0
  6
Continuous
 62
               7
100
AcDbVertex
100
AcDb2dVertex
 10
1009.3511864078263
 20
-384.78589981049805
 30
0.0
  0
VERTEX
  5
226
100
AcDbEntity
  8
0
370
              15
390
0
  6
Continuous
 62
               7
100
AcDbVertex
100
AcDb2dVertex
 10
960.35118640781673
 20
-384.78589981049805
 30
0.0
  0
SEQEND
  5
227
100
AcDbEntity
  8
0
370
              15
390
0
  6
Continuous
 62
               7
  0
POLYLINE
  5
229
100
AcDbEntity
  8
0
370
              15
390
0
  6
Continuous
 62
               7
100
AcDb2dPolyline
 66
               1
 10
0.0
 20
0.0
 30
0.0
 70
               1
 75
               5
  0
VERTEX
  5
22A
100
AcDbEntity
  8
0
370
              15
390
0
  6
Continuous
 62
               7
100
AcDbVertex
100
AcDb2dVertex
 10
1002.4216277141064
 20
-361.78589981049805
 30
0.0
  0
VERTEX
  5
22B
100
AcDbEntity
  8
0
370
              15
390
0
  6
Continuous
 62
               7
100
AcDbVertex
100
AcDb2dVertex
 10
1009.3511864078263
 20
-361.78589981049805
 30
0.0
  0
VERTEX
  5
22C
100
AcDbEntity
  8
0
370
              15
390
0
  6
Continuous
 62
               7
100
AcDbVertex
100
AcDb2dVertex
 10
1009.3511864078263
 20
-384.78589981049805
 30
0.0
  0
VERTEX
  5
22D
100
AcDbEntity
  8
0
370
              15
390
0
  6
Continuous
 62
               7
100
AcDbVertex
100
AcDb2dVertex
 10
1002.4216277141064
 20
-384.78589981049805
 30
0.0
  0
SEQEND
  5
22E
100
AcDbEntity
  8
0
370
              15
390
0
  6
Continuous
 62
               7
  0
POLYLINE
  5
230
100
AcDbEntity
  8
0
370
              15
390
0
  6
Continuous
 62
               7
100
AcDb2dPolyline
 66
               1
 10
0.0
 20
0.0
 30
0.0
 70
               1
 75
               5
  0
VERTEX
  5
231
100
AcDbEntity
  8
0
370
              15
390
0
  6
Continuous
 62
               7
100
AcDbVertex
100
AcDb2dVertex
 10
960.35118640781673
 20
232.24527893594774
 30
0.0
  0
VERTEX
  5
232
100
AcDbEntity
  8
0
370
              15
390
0
  6
Continuous
 62
               7
100
AcDbVertex
100
AcDb2dVertex
 10
1009.3511864078263
 20
232.24527893594774
 30
0.0
  0
VERTEX
  5
233
100
AcDbEntity
  8
0
370
              15
390
0
  6
Continuous
 62
               7
100
AcDbVertex
100
AcDb2dVertex
 10
1009.3511864078263
 20
209.24527893594774
 30
0.0
  0
VERTEX
  5
234
100
AcDbEntity
  8
0
370
              15
390
0
  6
Continuous
 62
               7
100
AcDbVertex
100
AcDb2dVertex
 10
960.35118640781673
 20
209.24527893594774
 30
0.0
  0
SEQEND
  5
235
100
AcDbEntity
  8
0
370
              15
390
0
  6
Continuous
 62
               7
  0
POLYLINE
  5
237
100
AcDbEntity
  8
0
370
              15
390
0
  6
Continuous
 62
               7
100
AcDb2dPolyline
 66
               1
 10
0.0
 20
0.0
 30
0.0
 70
               1
 75
               5
  0
VERTEX
  5
238
100
AcDbEntity
  8
0
370
              15
390
0
  6
Continuous
 62
               7
100
AcDbVertex
100
AcDb2dVertex
 10
1002.4216277141064
 20
232.24527893594774
 30
0.0
  0
VERTEX
  5
239
100
AcDbEntity
  8
0
370
              15
390
0
  6
Continuous
 62
               7
100
AcDbVertex
100
AcDb2dVertex
 10
1009.3511864078263
 20
232.24527893594774
 30
0.0
  0
VERTEX
  5
23A
100
AcDbEntity
  8
0
370
              15
390
0
  6
Continuous
 62
               7
100
AcDbVertex
100
AcDb2dVertex
 10
1009.3511864078263
 20
209.24527893594774
 30
0.0
  0
VERTEX
  5
23B
100
AcDbEntity
  8
0
370
              15
390
0
  6
Continuous
 62
               7
100
AcDbVertex
100
AcDb2dVertex
 10
1002.4216277141064
 20
209.24527893594774
 30
0.0
  0
SEQEND
  5
23C
100
AcDbEntity
  8
0
370
              15
390
0
  6
Continuous
 62
               7
  0
POLYLINE
  5
23E
100
AcDbEntity
  8
0
370
              15
390
0
  6
Continuous
 62
               7
100
AcDb2dPolyline
 66
               1
 10
0.0
 20
0.0
 30
0.0
 70
               1
 75
               5
  0
VERTEX
  5
23F
100
AcDbEntity
  8
0
370
              15
390
0
  6
Continuous
 62
               7
100
AcDbVertex
100
AcDb2dVertex
 10
960.35118640781673
 20
826.18383596012075
 30
0.0
  0
VERTEX
  5
240
100
AcDbEntity
  8
0
370
              15
390
0
  6
Continuous
 62
               7
100
AcDbVertex
100
AcDb2dVertex
 10
1009.3511864078263
 20
826.18383596012075
 30
0.0
  0
VERTEX
  5
241
100
AcDbEntity
  8
0
370
              15
390
0
  6
Continuous
 62
               7
100
AcDbVertex
100
AcDb2dVertex
 10
1009.3511864078263
 20
803.18383596012086
 30
0.0
  0
VERTEX
  5
242
100
AcDbEntity
  8
0
370
              15
390
0
  6
Continuous
 62
               7
100
AcDbVertex
100
AcDb2dVertex
 10
960.35118640781673
 20
803.18383596012086
 30
0.0
  0
SEQEND
  5
243
100
AcDbEntity
  8
0
370
              15
390
0
  6
Continuous
 62
               7
  0
POLYLINE
  5
245
100
AcDbEntity
  8
0
370
              15
390
0
  6
Continuous
 62
               7
100
AcDb2dPolyline
 66
               1
 10
0.0
 20
0.0
 30
0.0
 70
               1
 75
               5
  0
VERTEX
  5
246
100
AcDbEntity
  8
0
370
              15
390
0
  6
Continuous
 62
               7
100
AcDbVertex
100
AcDb2dVertex
 10
1002.4216277141064
 20
826.18383596012075
 30
0.0
  0
VERTEX
  5
247
100
AcDbEntity
  8
0
370
              15
390
0
  6
Continuous
 62
               7
100
AcDbVertex
100
AcDb2dVertex
 10
1009.3511864078263
 20
826.18383596012075
 30
0.0
  0
VERTEX
  5
248
100
AcDbEntity
  8
0
370
              15
390
0
  6
Continuous
 62
               7
100
AcDbVertex
100
AcDb2dVertex
 10
1009.3511864078263
 20
803.18383596012086
 30
0.0
  0
VERTEX
  5
249
100
AcDbEntity
  8
0
370
              15
390
0
  6
Continuous
 62
               7
100
AcDbVertex
100
AcDb2dVertex
 10
1002.4216277141064
 20
803.18383596012086
 30
0.0
  0
SEQEND
  5
24A
100
AcDbEntity
  8
0
370
              15
390
0
  6
Continuous
 62
               7
  0
POLYLINE
  5
24C
100
AcDbEntity
  8
0
370
              15
390
0
  6
Continuous
 62
               7
100
AcDb2dPolyline
 66
               1
 10
0.0
 20
0.0
 30
0.0
 70
               1
 75
               5
  0
VERTEX
  5
24D
100
AcDbEntity
  8
0
370
              15
390
0
  6
Continuous
 62
               7
100
AcDbVertex
100
AcDb2dVertex
 10
-734.75238891160825
 20
1672.3611105226166
 30
0.0
  0
VERTEX
  5
24E
100
AcDbEntity
  8
0
370
              15
390
0
  6
Continuous
 62
               7
100
AcDbVertex
100
AcDb2dVertex
 10
-131.75238891160825
 20
1672.3611105226166
 30
0.0
  0
VERTEX
  5
24F
100
AcDbEntity
  8
0
370
              15
390
0
  6
Continuous
 62
               7
100
AcDbVertex
100
AcDb2dVertex
 10
-131.75238891160825
 20
1653.3611105226184
 30
0.0
  0
VERTEX
  5
250
100
AcDbEntity
  8
0
370
              15
390
0
  6
Continuous
 62
               7
100
AcDbVertex
100
AcDb2dVertex
 10
-734.75238891160825
 20
1653.3611105226184
 30
0.0
  0
SEQEND
  5
251
100
AcDbEntity
  8
0
370
              15
390
0
  6
Continuous
 62
               7
  0
LINE
  5
253
100
AcDbEntity
  8
0
370
              15
390
0
  6
Continuous
 62
               7
100
AcDbLine
 10
-694.15004242761552
 20
1611.2207478325197
 30
0.0
 11
-694.15004242761552
 21
1653.2207478325197
 31
0.0
  0
LINE
  5
254
100
AcDbEntity
  8
0
370
              15
390
0
  6
Continuous
 62
               7
100
AcDbLine
 10
-680.15004242761552
 20
1653.2207478325197
 30
0.0
 11
-680.15004242761552
 21
1611.2207478325197
 31
0.0
  0
LINE
  5
255
100
AcDbEntity
  8
0
370
              15
390
0
  6
Continuous
 62
               7
100
AcDbLine
 10
-685.47326901403903
 20
1604.3383058130901
 30
0.0
 11
-685.64026881710015
 21
1604.2979717883782
 31
0.0
  0
LINE
  5
256
100
AcDbEntity
  8
0
370
              15
390
0
  6
Continuous
 62
               7
100
AcDbLine
 10
-685.30730935471365
 20
1604.3827260702781
 30
0.0
 11
-685.47326901403903
 21
1604.3383058130901
 31
0.0
  0
LINE
  5
257
100
AcDbEntity
  8
0
370
              15
390
0
  6
Continuous
 62
               7
100
AcDbLine
 10
-685.14248980701768
 20
1604.4312058028399
 30
0.0
 11
-685.30730935471365
 21
1604.3827260702781
 31
0.0
  0
LINE
  5
258
100
AcDbEntity
  8
0
370
              15
390
0
  6
Continuous
 62
               7
100
AcDbLine
 10
-684.97890965208353
 20
1604.4837158083981
 30
0.0
 11
-685.14248980701768
 21
1604.4312058028399
 31
0.0
  0
LINE
  5
259
100
AcDbEntity
  8
0
370
              15
390
0
  6
Continuous
 62
               7
100
AcDbLine
 10
-684.81666742447987
 20
1604.5402244568879
 30
0.0
 11
-684.97890965208353
 21
1604.4837158083981
 31
0.0
  0
LINE
  5
25A
100
AcDbEntity
  8
0
370
              15
390
0
  6
Continuous
 62
               7
100
AcDbLine
 10
-684.65586085285804
 20
1604.6006977096133
 30
0.0
 11
-684.81666742447987
 21
1604.5402244568879
 31
0.0
  0
LINE
  5
25B
100
AcDbEntity
  8
0
370
              15
390
0
  6
Continuous
 62
               7
100
AcDbLine
 10
-684.49658680108359
 20
1604.665099139748
 30
0.0
 11
-684.65586085285804
 21
1604.6006977096133
 31
0.0
  0
LINE
  5
25C
100
AcDbEntity
  8
0
370
              15
390
0
  6
Continuous
 62
               7
100
AcDbLine
 10
-684.33894120988998
 20
1604.733389954278
 30
0.0
 11
-684.49658680108359
 21
1604.665099139748
 31
0.0
  0
LINE
  5
25D
100
AcDbEntity
  8
0
370
              15
390
0
  6
Continuous
 62
               7
100
AcDbLine
 10
-684.1830190390865
 20
1604.8055290173706
 30
0.0
 11
-684.33894120988998
 21
1604.733389954278
 31
0.0
  0
LINE
  5
25E
100
AcDbEntity
  8
0
370
              15
390
0
  6
Continuous
 62
               7
100
AcDbLine
 10
-684.02891421035838
 20
1604.8814728751518
 30
0.0
 11
-684.1830190390865
 21
1604.8055290173706
 31
0.0
  0
LINE
  5
25F
100
AcDbEntity
  8
0
370
              15
390
0
  6
Continuous
 62
               7
100
AcDbLine
 10
-683.87671955069209
 20
1604.9611757818809
 30
0.0
 11
-684.02891421035838
 21
1604.8814728751518
 31
0.0
  0
LINE
  5
260
100
AcDbEntity
  8
0
370
              15
390
0
  6
Continuous
 62
               7
100
AcDbLine
 10
-683.72652673646007
 20
1605.0445897275076
 30
0.0
 11
-683.87671955069209
 21
1604.9611757818809
 31
0.0
  0
LINE
  5
261
100
AcDbEntity
  8
0
370
              15
390
0
  6
Continuous
 62
               7
100
AcDbLine
 10
-683.57842623819715
 20
1605.1316644665901
 30
0.0
 11
-683.72652673646007
 21
1605.0445897275076
 31
0.0
  0
LINE
  5
262
100
AcDbEntity
  8
0
370
              15
390
0
  6
Continuous
 62
               7
100
AcDbLine
 10
-683.43250726610586
 20
1605.2223475485614
 30
0.0
 11
-683.57842623819715
 21
1605.1316644665901
 31
0.0
  0
LINE
  5
263
100
AcDbEntity
  8
0
370
              15
390
0
  6
Continuous
 62
               7
100
AcDbLine
 10
-683.28885771631849
 20
1605.3165843493236
 30
0.0
 11
-683.43250726610586
 21
1605.2223475485614
 31
0.0
  0
LINE
  5
264
100
AcDbEntity
  8
0
370
              15
390
0
  6
Continuous
 62
               7
100
AcDbLine
 10
-683.1475641179527
 20
1605.4143181041518
 30
0.0
 11
-683.28885771631849
 21
1605.3165843493236
 31
0.0
  0
LINE
  5
265
100
AcDbEntity
  8
0
370
              15
390
0
  6
Continuous
 62
               7
100
AcDbLine
 10
-683.0087115809888
 20
1605.5154899418867
 30
0.0
 11
-683.1475641179527
 21
1605.4143181041518
 31
0.0
  0
LINE
  5
266
100
AcDbEntity
  8
0
370
              15
390
0
  6
Continuous
 62
               7
100
AcDbLine
 10
-682.87238374500294
 20
1605.6200389203962
 30
0.0
 11
-683.0087115809888
 21
1605.5154899418867
 31
0.0
  0
LINE
  5
267
100
AcDbEntity
  8
0
370
              15
390
0
  6
Continuous
 62
               7
100
AcDbLine
 10
-682.73866272878558
 20
1605.727902063285
 30
0.0
 11
-682.87238374500294
 21
1605.6200389203962
 31
0.0
  0
LINE
  5
268
100
AcDbEntity
  8
0
370
              15
390
0
  6
Continuous
 62
               7
100
AcDbLine
 10
-682.60762908087736
 20
1605.839014397829
 30
0.0
 11
-682.73866272878558
 21
1605.727902063285
 31
0.0
  0
LINE
  5
269
100
AcDbEntity
  8
0
370
              15
390
0
  6
Continuous
 62
               7
100
AcDbLine
 10
-682.4793617310479
 20
1605.9533089941131
 30
0.0
 11
-682.60762908087736
 21
1605.839014397829
 31
0.0
  0
LINE
  5
26A
100
AcDbEntity
  8
0
370
              15
390
0
  6
Continuous
 62
               7
100
AcDbLine
 10
-682.35393794275205
 20
1606.0707170053454
 30
0.0
 11
-682.4793617310479
 21
1605.9533089941131
 31
0.0
  0
LINE
  5
26B
100
AcDbEntity
  8
0
370
              15
390
0
  6
Continuous
 62
               7
100
AcDbLine
 10
-682.23143326659101
 20
1606.1911677093308
 30
0.0
 11
-682.35393794275205
 21
1606.0707170053454
 31
0.0
  0
LINE
  5
26C
100
AcDbEntity
  8
0
370
              15
390
0
  6
Continuous
 62
               7
100
AcDbLine
 10
-682.11192149479984
 20
1606.3145885510689
 30
0.0
 11
-682.23143326659101
 21
1606.1911677093308
 31
0.0
  0
LINE
  5
26D
100
AcDbEntity
  8
0
370
              15
390
0
  6
Continuous
 62
               7
100
AcDbLine
 10
-681.9954746168014
 20
1606.4409051864598
 30
0.0
 11
-682.11192149479984
 21
1606.3145885510689
 31
0.0
  0
LINE
  5
26E
100
AcDbEntity
  8
0
370
              15
390
0
  6
Continuous
 62
               7
100
AcDbLine
 10
-681.88216277584115
 20
1606.5700415270853
 30
0.0
 11
-681.9954746168014
 21
1606.4409051864598
 31
0.0
  0
LINE
  5
26F
100
AcDbEntity
  8
0
370
              15
390
0
  6
Continuous
 62
               7
100
AcDbLine
 10
-681.77205422673478
 20
1606.7019197860427
 30
0.0
 11
-681.88216277584115
 21
1606.5700415270853
 31
0.0
  0
LINE
  5
270
100
AcDbEntity
  8
0
370
              15
390
0
  6
Continuous
 62
               7
100
AcDbLine
 10
-681.66521529475494
 20
1606.8364605248003
 30
0.0
 11
-681.77205422673478
 21
1606.7019197860427
 31
0.0
  0
LINE
  5
271
100
AcDbEntity
  8
0
370
              15
390
0
  6
Continuous
 62
               7
100
AcDbLine
 10
-681.56171033567944
 20
1606.9735827010475
 30
0.0
 11
-681.66521529475494
 21
1606.8364605248003
 31
0.0
  0
LINE
  5
272
100
AcDbEntity
  8
0
370
              15
390
0
  6
Continuous
 62
               7
100
AcDbLine
 10
-681.46160169702534
 20
1607.1132037175128
 30
0.0
 11
-681.56171033567944
 21
1606.9735827010475
 31
0.0
  0
LINE
  5
273
100
AcDbEntity
  8
0
370
              15
390
0
  6
Continuous
 62
               7
100
AcDbLine
 10
-681.36494968049328
 20
1607.2552394717165
 30
0.0
 11
-681.46160169702534
 21
1607.1132037175128
 31
0.0
  0
LINE
  5
274
100
AcDbEntity
  8
0
370
              15
390
0
  6
Continuous
 62
               7
100
AcDbLine
 10
-681.27181250564399
 20
1607.3996044066319
 30
0.0
 11
-681.36494968049328
 21
1607.2552394717165
 31
0.0
  0
LINE
  5
275
100
AcDbEntity
  8
0
370
              15
390
0
  6
Continuous
 62
               7
100
AcDbLine
 10
-681.18224627482869
 20
1607.5462115622195
 30
0.0
 11
-681.27181250564399
 21
1607.3996044066319
 31
0.0
  0
LINE
  5
276
100
AcDbEntity
  8
0
370
              15
390
0
  6
Continuous
 62
               7
100
AcDbLine
 10
-681.09630493939585
 20
1607.6949726278115
 30
0.0
 11
-681.18224627482869
 21
1607.5462115622195
 31
0.0
  0
LINE
  5
277
100
AcDbEntity
  8
0
370
              15
390
0
  6
Continuous
 62
               7
100
AcDbLine
 10
-681.01404026719274
 20
1607.8457979953041
 30
0.0
 11
-681.09630493939585
 21
1607.6949726278115
 31
0.0
  0
LINE
  5
278
100
AcDbEntity
  8
0
370
              15
390
0
  6
Continuous
 62
               7
100
AcDbLine
 10
-680.93550181138153
 20
1607.9985968131357
 30
0.0
 11
-681.01404026719274
 21
1607.8457979953041
 31
0.0
  0
LINE
  5
279
100
AcDbEntity
  8
0
370
              15
390
0
  6
Continuous
 62
               7
100
AcDbLine
 10
-680.86073688059105
 20
1608.1532770410122
 30
0.0
 11
-680.93550181138153
 21
1607.9985968131357
 31
0.0
  0
LINE
  5
27A
100
AcDbEntity
  8
0
370
              15
390
0
  6
Continuous
 62
               7
100
AcDbLine
 10
-680.78979051042052
 20
1608.309745505348
 30
0.0
 11
-680.86073688059105
 21
1608.1532770410122
 31
0.0
  0
LINE
  5
27B
100
AcDbEntity
  8
0
370
              15
390
0
  6
Continuous
 62
               7
100
AcDbLine
 10
-680.72270543630975
 20
1608.467907955391
 30
0.0
 11
-680.78979051042052
 21
1608.309745505348
 31
0.0
  0
LINE
  5
27C
100
AcDbEntity
  8
0
370
              15
390
0
  6
Continuous
 62
               7
100
AcDbLine
 10
-680.65952206779957
 20
1608.6276691199951
 30
0.0
 11
-680.72270543630975
 21
1608.467907955391
 31
0.0
  0
LINE
  5
27D
100
AcDbEntity
  8
0
370
              15
390
0
  6
Continuous
 62
               7
100
AcDbLine
 10
-680.60027846418825
 20
1608.7889327650089
 30
0.0
 11
-680.65952206779957
 21
1608.6276691199951
 31
0.0
  0
LINE
  5
27E
100
AcDbEntity
  8
0
370
              15
390
0
  6
Continuous
 62
               7
100
AcDbLine
 10
-680.54501031160771
 20
1608.9516017512426
 30
0.0
 11
-680.60027846418825
 21
1608.7889327650089
 31
0.0
  0
LINE
  5
27F
100
AcDbEntity
  8
0
370
              15
390
0
  6
Continuous
 62
               7
100
AcDbLine
 10
-680.4937509015258
 20
1609.1155780929814
 30
0.0
 11
-680.54501031160771
 21
1608.9516017512426
 31
0.0
  0
LINE
  5
280
100
AcDbEntity
  8
0
370
              15
390
0
  6
Continuous
 62
               7
100
AcDbLine
 10
-680.4465311106951
 20
1609.2807630170084
 30
0.0
 11
-680.4937509015258
 21
1609.1155780929814
 31
0.0
  0
LINE
  5
281
100
AcDbEntity
  8
0
370
              15
390
0
  6
Continuous
 62
               7
100
AcDbLine
 10
-680.40337938255152
 20
1609.4470570221026
 30
0.0
 11
-680.4465311106951
 21
1609.2807630170084
 31
0.0
  0
LINE
  5
282
100
AcDbEntity
  8
0
370
              15
390
0
  6
Continuous
 62
               7
100
AcDbLine
 10
-680.36432171008255
 20
1609.6143599389729
 30
0.0
 11
-680.40337938255152
 21
1609.4470570221026
 31
0.0
  0
LINE
  5
283
100
AcDbEntity
  8
0
370
              15
390
0
  6
Continuous
 62
               7
100
AcDbLine
 10
-680.3293816201699
 20
1609.7825709905981
 30
0.0
 11
-680.36432171008255
 21
1609.6143599389729
 31
0.0
  0
LINE
  5
284
100
AcDbEntity
  8
0
370
              15
390
0
  6
Continuous
 62
               7
100
AcDbLine
 10
-680.29858015941682
 20
1609.9515888529306
 30
0.0
 11
-680.3293816201699
 21
1609.7825709905981
 31
0.0
  0
LINE
  5
285
100
AcDbEntity
  8
0
370
              15
390
0
  6
Continuous
 62
               7
100
AcDbLine
 10
-680.27193588147247
 20
1610.1213117159302
 30
0.0
 11
-680.29858015941682
 21
1609.9515888529306
 31
0.0
  0
LINE
  5
286
100
AcDbEntity
  8
0
370
              15
390
0
  6
Continuous
 62
               7
100
AcDbLine
 10
-680.24946483585245
 20
1610.2916373448907
 30
0.0
 11
-680.27193588147247
 21
1610.1213117159302
 31
0.0
  0
LINE
  5
287
100
AcDbEntity
  8
0
370
              15
390
0
  6
Continuous
 62
               7
100
AcDbLine
 10
-680.2311805582749
 20
1610.4624631420218
 30
0.0
 11
-680.24946483585245
 21
1610.2916373448907
 31
0.0
  0
LINE
  5
288
100
AcDbEntity
  8
0
370
              15
390
0
  6
Continuous
 62
               7
100
AcDbLine
 10
-680.21709406250511
 20
1610.633686208251
 30
0.0
 11
-680.2311805582749
 21
1610.4624631420218
 31
0.0
  0
LINE
  5
289
100
AcDbEntity
  8
0
370
              15
390
0
  6
Continuous
 62
               7
100
AcDbLine
 10
-680.20721383372074
 20
1610.8052034052055
 30
0.0
 11
-680.21709406250511
 21
1610.633686208251
 31
0.0
  0
LINE
  5
28A
100
AcDbEntity
  8
0
370
              15
390
0
  6
Continuous
 62
               7
100
AcDbLine
 10
-680.20154582340319
 20
1610.9769114173396
 30
0.0
 11
-680.20721383372074
 21
1610.8052034052055
 31
0.0
  0
LINE
  5
28B
100
AcDbEntity
  8
0
370
              15
390
0
  6
Continuous
 62
               7
100
AcDbLine
 10
-680.20009344574919
 20
1611.1487068141671
 30
0.0
 11
-680.20154582340319
 21
1610.9769114173396
 31
0.0
  0
LINE
  5
28C
100
AcDbEntity
  8
0
370
              15
390
0
  6
Continuous
 62
               7
100
AcDbLine
 10
-694.1972272796138
 20
1610.9234765561976
 30
0.0
 11
-694.1999914094813
 21
1611.0952558545955
 31
0.0
  0
LINE
  5
28D
100
AcDbEntity
  8
0
370
              15
390
0
  6
Continuous
 62
               7
100
AcDbLine
 10
-694.19024830723311
 20
1610.7518168296556
 30
0.0
 11
-694.1972272796138
 21
1610.9234765561976
 31
0.0
  0
LINE
  5
28E
100
AcDbEntity
  8
0
370
              15
390
0
  6
Continuous
 62
               7
100
AcDbLine
 10
-694.17905869621063
 20
1610.5803800763699
 30
0.0
 11
-694.19024830723311
 21
1610.7518168296556
 31
0.0
  0
LINE
  5
28F
100
AcDbEntity
  8
0
370
              15
390
0
  6
Continuous
 62
               7
100
AcDbLine
 10
-694.16366518675068
 20
1610.4092695634301
 30
0.0
 11
-694.17905869621063
 21
1610.5803800763699
 31
0.0
  0
LINE
  5
290
100
AcDbEntity
  8
0
370
              15
390
0
  6
Continuous
 62
               7
100
AcDbLine
 10
-694.14407705132726
 20
1610.2385883614113
 30
0.0
 11
-694.16366518675068
 21
1610.4092695634301
 31
0.0
  0
LINE
  5
291
100
AcDbEntity
  8
0
370
              15
390
0
  6
Continuous
 62
               7
100
AcDbLine
 10
-694.12030608910027
 20
1610.068439282287
 30
0.0
 11
-694.14407705132726
 21
1610.2385883614113
 31
0.0
  0
LINE
  5
292
100
AcDbEntity
  8
0
370
              15
390
0
  6
Continuous
 62
               7
100
AcDbLine
 10
-694.09236661880914
 20
1609.8989248175008
 30
0.0
 11
-694.12030608910027
 21
1610.068439282287
 31
0.0
  0
LINE
  5
293
100
AcDbEntity
  8
0
370
              15
390
0
  6
Continuous
 62
               7
100
AcDbLine
 10
-694.06027547014583
 20
1609.730147076227
 30
0.0
 11
-694.09236661880914
 21
1609.8989248175008
 31
0.0
  0
LINE
  5
294
100
AcDbEntity
  8
0
370
              15
390
0
  6
Continuous
 62
               7
100
AcDbLine
 10
-694.0240519736185
 20
1609.5622077238663
 30
0.0
 11
-694.06027547014583
 21
1609.730147076227
 31
0.0
  0
LINE
  5
295
100
AcDbEntity
  8
0
370
              15
390
0
  6
Continuous
 62
               7
100
AcDbLine
 10
-693.98371794890681
 20
1609.395207920805
 30
0.0
 11
-694.0240519736185
 21
1609.5622077238663
 31
0.0
  0
LINE
  5
296
100
AcDbEntity
  8
0
370
              15
390
0
  6
Continuous
 62
               7
100
AcDbLine
 10
-693.93929769171882
 20
1609.2292482614796
 30
0.0
 11
-693.98371794890681
 21
1609.395207920805
 31
0.0
  0
LINE
  5
297
100
AcDbEntity
  8
0
370
              15
390
0
  6
Continuous
 62
               7
100
AcDbLine
 10
-693.89081795915672
 20
1609.0644287137836
 30
0.0
 11
-693.93929769171882
 21
1609.2292482614796
 31
0.0
  0
LINE
  5
298
100
AcDbEntity
  8
0
370
              15
390
0
  6
Continuous
 62
               7
100
AcDbLine
 10
-693.83830795359881
 20
1608.9008485588495
 30
0.0
 11
-693.89081795915672
 21
1609.0644287137836
 31
0.0
  0
LINE
  5
299
100
AcDbEntity
  8
0
370
              15
390
0
  6
Continuous
 62
               7
100
AcDbLine
 10
-693.78179930510851
 20
1608.7386063312458
 30
0.0
 11
-693.83830795359881
 21
1608.9008485588495
 31
0.0
  0
LINE
  5
29A
100
AcDbEntity
  8
0
370
              15
390
0
  6
Continuous
 62
               7
100
AcDbLine
 10
-693.72132605238312
 20
1608.577799759624
 30
0.0
 11
-693.78179930510851
 21
1608.7386063312458
 31
0.0
  0
LINE
  5
29B
100
AcDbEntity
  8
0
370
              15
390
0
  6
Continuous
 62
               7
100
AcDbLine
 10
-693.65692462224888
 20
1608.4185257078495
 30
0.0
 11
-693.72132605238312
 21
1608.577799759624
 31
0.0
  0
LINE
  5
29C
100
AcDbEntity
  8
0
370
              15
390
0
  6
Continuous
 62
               7
100
AcDbLine
 10
-693.58863380771845
 20
1608.2608801166559
 30
0.0
 11
-693.65692462224888
 21
1608.4185257078495
 31
0.0
  0
LINE
  5
29D
100
AcDbEntity
  8
0
370
              15
390
0
  6
Continuous
 62
               7
100
AcDbLine
 10
-693.51649474462602
 20
1608.1049579458524
 30
0.0
 11
-693.58863380771845
 21
1608.2608801166559
 31
0.0
  0
LINE
  5
29E
100
AcDbEntity
  8
0
370
              15
390
0
  6
Continuous
 62
               7
100
AcDbLine
 10
-693.4405508868449
 20
1607.9508531171243
 30
0.0
 11
-693.51649474462602
 21
1608.1049579458524
 31
0.0
  0
LINE
  5
29F
100
AcDbEntity
  8
0
370
              15
390
0
  6
Continuous
 62
               7
100
AcDbLine
 10
-693.36084798011552
 20
1607.798658457458
 30
0.0
 11
-693.4405508868449
 21
1607.9508531171243
 31
0.0
  0
LINE
  5
2A0
100
AcDbEntity
  8
0
370
              15
390
0
  6
Continuous
 62
               7
100
AcDbLine
 10
-693.27743403448903
 20
1607.648465643226
 30
0.0
 11
-693.36084798011552
 21
1607.798658457458
 31
0.0
  0
LINE
  5
2A1
100
AcDbEntity
  8
0
370
              15
390
0
  6
Continuous
 62
               7
100
AcDbLine
 10
-693.19035929540678
 20
1607.5003651449631
 30
0.0
 11
-693.27743403448903
 21
1607.648465643226
 31
0.0
  0
LINE
  5
2A2
100
AcDbEntity
  8
0
370
              15
390
0
  6
Continuous
 62
               7
100
AcDbLine
 10
-693.09967621343549
 20
1607.3544461728718
 30
0.0
 11
-693.19035929540678
 21
1607.5003651449631
 31
0.0
  0
LINE
  5
2A3
100
AcDbEntity
  8
0
370
              15
390
0
  6
Continuous
 62
               7
100
AcDbLine
 10
-693.00543941267324
 20
1607.2107966230844
 30
0.0
 11
-693.09967621343549
 21
1607.3544461728718
 31
0.0
  0
LINE
  5
2A4
100
AcDbEntity
  8
0
370
              15
390
0
  6
Continuous
 62
               7
100
AcDbLine
 10
-692.90770565784487
 20
1607.0695030247186
 30
0.0
 11
-693.00543941267324
 21
1607.2107966230844
 31
0.0
  0
LINE
  5
2A5
100
AcDbEntity
  8
0
370
              15
390
0
  6
Continuous
 62
               7
100
AcDbLine
 10
-692.80653382010996
 20
1606.9306504877547
 30
0.0
 11
-692.90770565784487
 21
1607.0695030247186
 31
0.0
  0
LINE
  5
2A6
100
AcDbEntity
  8
0
370
              15
390
0
  6
Continuous
 62
               7
100
AcDbLine
 10
-692.70198484160028
 20
1606.7943226517689
 30
0.0
 11
-692.80653382010996
 21
1606.9306504877547
 31
0.0
  0
LINE
  5
2A7
100
AcDbEntity
  8
0
370
              15
390
0
  6
Continuous
 62
               7
100
AcDbLine
 10
-692.59412169871166
 20
1606.6606016355518
 30
0.0
 11
-692.70198484160028
 21
1606.7943226517689
 31
0.0
  0
LINE
  5
2A8
100
AcDbEntity
  8
0
370
              15
390
0
  6
Continuous
 62
               7
100
AcDbLine
 10
-692.48300936416763
 20
1606.5295679876433
 30
0.0
 11
-692.59412169871166
 21
1606.6606016355518
 31
0.0
  0
LINE
  5
2A9
100
AcDbEntity
  8
0
370
              15
390
0
  6
Continuous
 62
               7
100
AcDbLine
 10
-692.36871476788383
 20
1606.4013006378138
 30
0.0
 11
-692.48300936416763
 21
1606.5295679876433
 31
0.0
  0
LINE
  5
2AA
100
AcDbEntity
  8
0
370
              15
390
0
  6
Continuous
 62
               7
100
AcDbLine
 10
-692.25130675665105
 20
1606.2758768495182
 30
0.0
 11
-692.36871476788383
 21
1606.4013006378138
 31
0.0
  0
LINE
  5
2AB
100
AcDbEntity
  8
0
370
              15
390
0
  6
Continuous
 62
               7
100
AcDbLine
 10
-692.13085605266588
 20
1606.153372173357
 30
0.0
 11
-692.25130675665105
 21
1606.2758768495182
 31
0.0
  0
LINE
  5
2AC
100
AcDbEntity
  8
0
370
              15
390
0
  6
Continuous
 62
               7
100
AcDbLine
 10
-692.00743521092772
 20
1606.0338604015658
 30
0.0
 11
-692.13085605266588
 21
1606.153372173357
 31
0.0
  0
LINE
  5
2AD
100
AcDbEntity
  8
0
370
              15
390
0
  6
Continuous
 62
               7
100
AcDbLine
 10
-691.88111857553668
 20
1605.9174135235676
 30
0.0
 11
-692.00743521092772
 21
1606.0338604015658
 31
0.0
  0
LINE
  5
2AE
100
AcDbEntity
  8
0
370
              15
390
0
  6
Continuous
 62
               7
100
AcDbLine
 10
-691.75198223491134
 20
1605.8041016826071
 30
0.0
 11
-691.88111857553668
 21
1605.9174135235676
 31
0.0
  0
LINE
  5
2AF
100
AcDbEntity
  8
0
370
              15
390
0
  6
Continuous
 62
               7
100
AcDbLine
 10
-691.62010397595395
 20
1605.6939931335007
 30
0.0
 11
-691.75198223491134
 21
1605.8041016826071
 31
0.0
  0
LINE
  5
2B0
100
AcDbEntity
  8
0
370
              15
390
0
  6
Continuous
 62
               7
100
AcDbLine
 10
-691.4855632371964
 20
1605.5871542015209
 30
0.0
 11
-691.62010397595395
 21
1605.6939931335007
 31
0.0
  0
LINE
  5
2B1
100
AcDbEntity
  8
0
370
              15
390
0
  6
Continuous
 62
               7
100
AcDbLine
 10
-691.34844106094897
 20
1605.4836492424454
 30
0.0
 11
-691.4855632371964
 21
1605.5871542015209
 31
0.0
  0
LINE
  5
2B2
100
AcDbEntity
  8
0
370
              15
390
0
  6
Continuous
 62
               7
100
AcDbLine
 10
-691.20882004448413
 20
1605.3835406037913
 30
0.0
 11
-691.34844106094897
 21
1605.4836492424454
 31
0.0
  0
LINE
  5
2B3
100
AcDbEntity
  8
0
370
              15
390
0
  6
Continuous
 62
               7
100
AcDbLine
 10
-691.06678429027988
 20
1605.2868885872592
 30
0.0
 11
-691.20882004448413
 21
1605.3835406037913
 31
0.0
  0
LINE
  5
2B4
100
AcDbEntity
  8
0
370
              15
390
0
  6
Continuous
 62
               7
100
AcDbLine
 10
-690.92241935536458
 20
1605.1937514124099
 30
0.0
 11
-691.06678429027988
 21
1605.2868885872592
 31
0.0
  0
LINE
  5
2B5
100
AcDbEntity
  8
0
370
              15
390
0
  6
Continuous
 62
               7
100
AcDbLine
 10
-690.77581219977719
 20
1605.1041851815946
 30
0.0
 11
-690.92241935536458
 21
1605.1937514124099
 31
0.0
  0
LINE
  5
2B6
100
AcDbEntity
  8
0
370
              15
390
0
  6
Continuous
 62
               7
100
AcDbLine
 10
-690.62705113418542
 20
1605.0182438461618
 30
0.0
 11
-690.77581219977719
 21
1605.1041851815946
 31
0.0
  0
LINE
  5
2B7
100
AcDbEntity
  8
0
370
              15
390
0
  6
Continuous
 62
               7
100
AcDbLine
 10
-690.47622576669255
 20
1604.9359791739587
 30
0.0
 11
-690.62705113418542
 21
1605.0182438461618
 31
0.0
  0
LINE
  5
2B8
100
AcDbEntity
  8
0
370
              15
390
0
  6
Continuous
 62
               7
100
AcDbLine
 10
-690.32342694886074
 20
1604.8574407181475
 30
0.0
 11
-690.47622576669255
 21
1604.9359791739587
 31
0.0
  0
LINE
  5
2B9
100
AcDbEntity
  8
0
370
              15
390
0
  6
Continuous
 62
               7
100
AcDbLine
 10
-690.16874672098447
 20
1604.782675787357
 30
0.0
 11
-690.32342694886074
 21
1604.8574407181475
 31
0.0
  0
LINE
  5
2BA
100
AcDbEntity
  8
0
370
              15
390
0
  6
Continuous
 62
               7
100
AcDbLine
 10
-690.01227825664864
 20
1604.7117294171865
 30
0.0
 11
-690.16874672098447
 21
1604.782675787357
 31
0.0
  0
LINE
  5
2BB
100
AcDbEntity
  8
0
370
              15
390
0
  6
Continuous
 62
               7
100
AcDbLine
 10
-689.85411580660593
 20
1604.6446443430757
 30
0.0
 11
-690.01227825664864
 21
1604.7117294171865
 31
0.0
  0
LINE
  5
2BC
100
AcDbEntity
  8
0
370
              15
390
0
  6
Continuous
 62
               7
100
AcDbLine
 10
-689.6943546420016
 20
1604.5814609745655
 30
0.0
 11
-689.85411580660593
 21
1604.6446443430757
 31
0.0
  0
LINE
  5
2BD
100
AcDbEntity
  8
0
370
              15
390
0
  6
Continuous
 62
               7
100
AcDbLine
 10
-689.53309099698799
 20
1604.5222173709544
 30
0.0
 11
-689.6943546420016
 21
1604.5814609745655
 31
0.0
  0
LINE
  5
2BE
100
AcDbEntity
  8
0
370
              15
390
0
  6
Continuous
 62
               7
100
AcDbLine
 10
-689.37042201075428
 20
1604.4669492183737
 30
0.0
 11
-689.53309099698799
 21
1604.5222173709544
 31
0.0
  0
LINE
  5
2BF
100
AcDbEntity
  8
0
370
              15
390
0
  6
Continuous
 62
               7
100
AcDbLine
 10
-689.20644566901501
 20
1604.4156898082917
 30
0.0
 11
-689.37042201075428
 21
1604.4669492183737
 31
0.0
  0
LINE
  5
2C0
100
AcDbEntity
  8
0
370
              15
390
0
  6
Continuous
 62
               7
100
AcDbLine
 10
-689.04126074498799
 20
1604.368470017461
 30
0.0
 11
-689.20644566901501
 21
1604.4156898082917
 31
0.0
  0
LINE
  5
2C1
100
AcDbEntity
  8
0
370
              15
390
0
  6
Continuous
 62
               7
100
AcDbLine
 10
-688.87496673989426
 20
1604.3253182893175
 30
0.0
 11
-689.04126074498799
 21
1604.368470017461
 31
0.0
  0
LINE
  5
2C2
100
AcDbEntity
  8
0
370
              15
390
0
  6
Continuous
 62
               7
100
AcDbLine
 10
-688.70766382302372
 20
1604.2862606168485
 30
0.0
 11
-688.87496673989426
 21
1604.3253182893175
 31
0.0
  0
LINE
  5
2C3
100
AcDbEntity
  8
0
370
              15
390
0
  6
Continuous
 62
               7
100
AcDbLine
 10
-688.53945277139837
 20
1604.2513205269358
 30
0.0
 11
-688.70766382302372
 21
1604.2862606168485
 31
0.0
  0
LINE
  5
2C4
100
AcDbEntity
  8
0
370
              15
390
0
  6
Continuous
 62
               7
100
AcDbLine
 10
-688.37043490906581
 20
1604.220519066183
 30
0.0
 11
-688.53945277139837
 21
1604.2513205269358
 31
0.0
  0
LINE
  5
2C5
100
AcDbEntity
  8
0
370
              15
390
0
  6
Continuous
 62
               7
100
AcDbLine
 10
-688.2007120460662
 20
1604.1938747882384
 30
0.0
 11
-688.37043490906581
 21
1604.220519066183
 31
0.0
  0
LINE
  5
2C6
100
AcDbEntity
  8
0
370
              15
390
0
  6
Continuous
 62
               7
100
AcDbLine
 10
-688.030386417106
 20
1604.1714037426184
 30
0.0
 11
-688.2007120460662
 21
1604.1938747882384
 31
0.0
  0
LINE
  5
2C7
100
AcDbEntity
  8
0
370
              15
390
0
  6
Continuous
 62
               7
100
AcDbLine
 10
-687.85956061997513
 20
1604.1531194650408
 30
0.0
 11
-688.030386417106
 21
1604.1714037426184
 31
0.0
  0
LINE
  5
2C8
100
AcDbEntity
  8
0
370
              15
390
0
  6
Continuous
 62
               7
100
AcDbLine
 10
-687.6883375537459
 20
1604.1390329692711
 30
0.0
 11
-687.85956061997513
 21
1604.1531194650408
 31
0.0
  0
LINE
  5
2C9
100
AcDbEntity
  8
0
370
              15
390
0
  6
Continuous
 62
               7
100
AcDbLine
 10
-687.51682035679096
 20
1604.1291527404869
 30
0.0
 11
-687.6883375537459
 21
1604.1390329692711
 31
0.0
  0
LINE
  5
2CA
100
AcDbEntity
  8
0
370
              15
390
0
  6
Continuous
 62
               7
100
AcDbLine
 10
-687.34511234465708
 20
1604.1234847301691
 30
0.0
 11
-687.51682035679096
 21
1604.1291527404869
 31
0.0
  0
LINE
  5
2CB
100
AcDbEntity
  8
0
370
              15
390
0
  6
Continuous
 62
               7
100
AcDbLine
 10
-687.17331694782933
 20
1604.1220323525151
 30
0.0
 11
-687.34511234465708
 21
1604.1234847301691
 31
0.0
  0
LINE
  5
2CC
100
AcDbEntity
  8
0
370
              15
390
0
  6
Continuous
 62
               7
100
AcDbLine
 10
-687.00153764943161
 20
1604.1247964823826
 30
0.0
 11
-687.17331694782933
 21
1604.1220323525151
 31
0.0
  0
LINE
  5
2CD
100
AcDbEntity
  8
0
370
              15
390
0
  6
Continuous
 62
               7
100
AcDbLine
 10
-686.82987792288986
 20
1604.1317754547638
 30
0.0
 11
-687.00153764943161
 21
1604.1247964823826
 31
0.0
  0
LINE
  5
2CE
100
AcDbEntity
  8
0
370
              15
390
0
  6
Continuous
 62
               7
100
AcDbLine
 10
-686.65844116960398
 20
1604.1429650657858
 30
0.0
 11
-686.82987792288986
 21
1604.1317754547638
 31
0.0
  0
LINE
  5
2CF
100
AcDbEntity
  8
0
370
              15
390
0
  6
Continuous
 62
               7
100
AcDbLine
 10
-686.4873306566642
 20
1604.158358575246
 30
0.0
 11
-686.65844116960398
 21
1604.1429650657858
 31
0.0
  0
LINE
  5
2D0
100
AcDbEntity
  8
0
370
              15
390
0
  6
Continuous
 62
               7
100
AcDbLine
 10
-686.31664945464536
 20
1604.1779467106696
 30
0.0
 11
-686.4873306566642
 21
1604.158358575246
 31
0.0
  0
LINE
  5
2D1
100
AcDbEntity
  8
0
370
              15
390
0
  6
Continuous
 62
               7
100
AcDbLine
 10
-686.1465003755211
 20
1604.2017176728964
 30
0.0
 11
-686.31664945464536
 21
1604.1779467106696
 31
0.0
  0
LINE
  5
2D2
100
AcDbEntity
  8
0
370
              15
390
0
  6
Continuous
 62
               7
100
AcDbLine
 10
-685.97698591073458
 20
1604.2296571431875
 30
0.0
 11
-686.1465003755211
 21
1604.2017176728964
 31
0.0
  0
LINE
  5
2D3
100
AcDbEntity
  8
0
370
              15
390
0
  6
Continuous
 62
               7
100
AcDbLine
 10
-685.80820816946107
 20
1604.2617482918506
 30
0.0
 11
-685.97698591073458
 21
1604.2296571431875
 31
0.0
  0
LINE
  5
2D4
100
AcDbEntity
  8
0
370
              15
390
0
  6
Continuous
 62
               7
100
AcDbLine
 10
-685.64026881710015
 20
1604.2979717883782
 30
0.0
 11
-685.80820816946107
 21
1604.2617482918506
 31
0.0
  0
ENDSEC
  0
SECTION
  2
OBJECTS
  0
DICTIONARY
  5
19
100
AcDbDictionary
280
               0
281
               1
  3
ACAD_GROUP
350
1A
  3
ACAD_MLINESTYLE
350
1B
  3
ACAD_LAYOUT
350
1E
  3
ACAD_PLOTSETTINGS
350
22
  3
ACAD_PLOTSTYLENAME
350
1F
  3
ACAD_WIPEOUT_VARS
350
23
  0
DICTIONARY
  5
1A
102
{ACAD_REACTORS
330
19
102
}
100
AcDbDictionary
280
               0
281
               1
  0
DICTIONARY
  5
1B
102
{ACAD_REACTORS
330
19
102
}
100
AcDbDictionary
280
               0
281
               1
  3
Standard
350
1C
  0
MLINESTYLE
  5
1C
102
{ACAD_REACTORS
330
1B
102
}
100
AcDbMlineStyle
  2
Standard
 70
               0
  3

 62
               0
 51
90.0
 52
90.0
 71
               2
 49
0.5
 62
             256
  6
ByLayer
 49
-0.5
 62
             256
  6
ByLayer
  0
ACDBDICTIONARYWDFLT
  5
1F
102
{ACAD_REACTORS
330
19
102
}
100
AcDbDictionary
281
               1
  3
Normal
350
1D
100
AcDbDictionaryWithDefault
340
1D
  0
ACDBPLACEHOLDER
  5
1D
102
{ACAD_REACTORS
330
1F
102
}
  0
LAYOUT
  5
20
102
{ACAD_REACTORS
330
1E
102
}
100
AcDbPlotSettings
  1

  2

  4

  6

 40
0.0
 41
0.0
 42
0.0
 43
0.0
 44
0.0
 45
0.0
 46
0.0
 47
0.0
 48
0.0
 49
0.0
140
0.0
141
0.0
142
1.0
143
1.0
 70
            1024
 72
               0
 73
               0
 74
               0
  7

 75
               0
147
1.0
148
0.0
149
0.0
100
AcDbLayout
  1
Model
 70
               0
 71
               0
 10
0.0
 20
0.0
 11
0.0
 21
0.0
 12
0.0
 22
0.0
 32
0.0
 14
0.0
 24
0.0
 34
0.0
 15
0.0
 25
0.0
 35
0.0
146
0.0
 13
0.0
 23
0.0
 33
0.0
 16
0.0
 26
0.0
 36
0.0
 17
0.0
 27
0.0
 37
0.0
 76
               0
330
A
331
0
345
0
346
0
  0
LAYOUT
  5
21
102
{ACAD_REACTORS
330
1E
102
}
100
AcDbPlotSettings
  1

  2

  4

  6

 40
0.0
 41
0.0
 42
0.0
 43
0.0
 44
0.0
 45
0.0
 46
0.0
 47
0.0
 48
0.0
 49
0.0
140
0.0
141
0.0
142
1.0
143
1.0
 70
               0
 72
               0
 73
               0
 74
               0
  7

 75
               0
147
1.0
148
0.0
149
0.0
100
AcDbLayout
  1
Layout1
 70
               0
 71
               0
 10
0.0
 20
0.0
 11
0.0
 21
0.0
 12
0.0
 22
0.0
 32
0.0
 14
0.0
 24
0.0
 34
0.0
 15
0.0
 25
0.0
 35
0.0
146
0.0
 13
0.0
 23
0.0
 33
0.0
 16
0.0
 26
0.0
 36
0.0
 17
0.0
 27
0.0
 37
0.0
 76
               0
330
B
331
0
345
0
346
0
  0
DICTIONARY
  5
1E
102
{ACAD_REACTORS
330
19
102
}
100
AcDbDictionary
280
               0
281
               1
  3
Layout1
350
21
  3
Model
350
20
  0
DICTIONARY
  5
22
102
{ACAD_REACTORS
330
19
102
}
100
AcDbDictionary
280
               0
281
               1
  0
WIPEOUTVARIABLES
  5
23
100
AcDbWipeoutVariables
 70
               0
  0
ENDSEC
  0
EOF
