  0
SECTION
  2
HEADER
  9
$ACADVER
  1
AC1015
  9
$ACADMAINTVER
 70
               6
  9
$DWGCODEPAGE
  3
ANSI_932
  9
$INSBASE
 10
0.0
 20
0.0
 30
0.0
  9
$EXTMIN
 10
-3334.1371813310743
 20
-908.59914432669461
 30
0.0
  9
$EXTMAX
 10
1199.3431131114748
 20
2451.1496640004393
 30
0.0
  9
$LIMMIN
 10
0.0
 20
0.0
  9
$LIMMAX
 10
0.0
 20
0.0
  9
$ORTHOMODE
 70
               0
  9
$REGENMODE
 70
               1
  9
$FILLMODE
 70
               1
  9
$QTEXTMODE
 70
               0
  9
$MIRRTEXT
 70
               1
  9
$LTSCALE
 40
101.59999999999999
  9
$ATTMODE
 70
               1
  9
$TEXTSIZE
 40
0.2
  9
$TRACEWID
 40
1.0
  9
$TEXTSTYLE
  7
Standard
  9
$CLAYER
  8
1
  9
$CELTYPE
  6
Continuous
  9
$CECOLOR
 62
             256
  9
$CELTSCALE
 40
1.0
  9
$DISPSILH
 70
               0
  9
$DIMSCALE
 40
1.0
  9
$DIMASZ
 40
0.18
  9
$DIMEXO
 40
0.0625
  9
$DIMDLI
 40
0.38
  9
$DIMRND
 40
0.0
  9
$DIMDLE
 40
0.0
  9
$DIMEXE
 40
0.18
  9
$DIMTP
 40
0.0
  9
$DIMTM
 40
0.0
  9
$DIMTXT
 40
0.18
  9
$DIMCEN
 40
0.09
  9
$DIMTSZ
 40
0.0
  9
$DIMTOL
 70
               0
  9
$DIMLIM
 70
               0
  9
$DIMTIH
 70
               1
  9
$DIMTOH
 70
               1
  9
$DIMSE1
 70
               0
  9
$DIMSE2
 70
               0
  9
$DIMTAD
 70
               0
  9
$DIMZIN
 70
               0
  9
$DIMBLK
  1

  9
$DIMASO
 70
               1
  9
$DIMSHO
 70
               1
  9
$DIMPOST
  1

  9
$DIMAPOST
  1

  9
$DIMALT
 70
               0
  9
$DIMALTD
 70
               2
  9
$DIMALTF
 40
25.399999999999999
  9
$DIMLFAC
 40
1.0
  9
$DIMTOFL
 70
               0
  9
$DIMTVP
 40
0.0
  9
$DIMTIX
 70
               0
  9
$DIMSOXD
 70
               0
  9
$DIMSAH
 70
               0
  9
$DIMBLK1
  1

  9
$DIMBLK2
  1

  9
$DIMSTYLE
  2
Standard
  9
$DIMCLRD
 70
               0
  9
$DIMCLRE
 70
               0
  9
$DIMCLRT
 70
               0
  9
$DIMTFAC
 40
1.0
  9
$DIMGAP
 40
0.09
  9
$DIMJUST
 70
               0
  9
$DIMSD1
 70
               0
  9
$DIMSD2
 70
               0
  9
$DIMTOLJ
 70
               1
  9
$DIMTZIN
 70
               0
  9
$DIMALTZ
 70
               0
  9
$DIMALTTZ
 70
               0
  9
$DIMUPT
 70
               0
  9
$DIMDEC
 70
               4
  9
$DIMTDEC
 70
               4
  9
$DIMALTU
 70
               2
  9
$DIMALTTD
 70
               2
  9
$DIMTXSTY
  7
Standard
  9
$DIMAUNIT
 70
               0
  9
$DIMADEC
 70
               0
  9
$DIMALTRND
 40
0.0
  9
$DIMAZIN
 70
               0
  9
$DIMDSEP
 70
               0
  9
$DIMATFIT
 70
               3
  9
$DIMFRAC
 70
               0
  9
$DIMLDRBLK
  1

  9
$DIMLUNIT
 70
               2
  9
$DIMLWD
 70
               0
  9
$DIMLWE
 70
               0
  9
$DIMTMOVE
 70
               0
  9
$LUNITS
 70
               2
  9
$LUPREC
 70
               4
  9
$SKETCHINC
 40
0.1
  9
$FILLETRAD
 40
0.0
  9
$AUNITS
 70
               0
  9
$AUPREC
 70
               0
  9
$MENU
  1
acad
  9
$ELEVATION
 40
0.0
  9
$PELEVATION
 40
0.0
  9
$THICKNESS
 40
0.0
  9
$LIMCHECK
 70
               0
  9
$CHAMFERA
 40
0.0
  9
$CHAMFERB
 40
0.0
  9
$CHAMFERC
 40
0.0
  9
$CHAMFERD
 40
0.0
  9
$SKPOLY
 70
               0
  9
$TDCREATE
 40
2456363.606643518
  9
$TDUCREATE
 40
0.000000000
  9
$TDUPDATE
 40
2456363.606643518
  9
$TDUUPDATE
 40
0.000000000
  9
$TDINDWG
 40
0.0000000000
  9
$TDUSRTIMER
 40
0.0000000000
  9
$USRTIMER
 70
               1
  9
$ANGBASE
 50
0.0
  9
$ANGDIR
 70
               0
  9
$PDMODE
 70
               1
  9
$PDSIZE
 40
-2.0
  9
$PLINEWID
 40
0.0
  9
$SPLFRAME
 70
               0
  9
$SPLINETYPE
 70
               6
  9
$SPLINESEGS
 70
               8
  9
$HANDSEED
  5
26A
  9
$SURFTAB1
 70
               6
  9
$SURFTAB2
 70
               6
  9
$SURFTYPE
 70
               6
  9
$SURFU
 70
               6
  9
$SURFV
 70
               6
  9
$UCSBASE
  2

  9
$UCSNAME
  2

  9
$UCSORG
 10
0.0
 20
0.0
 30
0.0
  9
$UCSXDIR
 10
1.0
 20
0.0
 30
0.0
  9
$UCSYDIR
 10
0.0
 20
1.0
 30
0.0
  9
$UCSORTHOREF
  2

  9
$UCSORTHOVIEW
 70
               0
  9
$UCSORGTOP
 10
0.0
 20
0.0
 30
0.0
  9
$UCSORGBOTTOM
 10
0.0
 20
0.0
 30
0.0
  9
$UCSORGLEFT
 10
0.0
 20
0.0
 30
0.0
  9
$UCSORGRIGHT
 10
0.0
 20
0.0
 30
0.0
  9
$UCSORGFRONT
 10
0.0
 20
0.0
 30
0.0
  9
$UCSORGBACK
 10
0.0
 20
0.0
 30
0.0
  9
$PUCSBASE
  2

  9
$PUCSNAME
  2

  9
$PUCSORG
 10
0.0
 20
0.0
 30
0.0
  9
$PUCSXDIR
 10
1.0
 20
0.0
 30
0.0
  9
$PUCSYDIR
 10
0.0
 20
1.0
 30
0.0
  9
$PUCSORTHOREF
  2

  9
$PUCSORTHOVIEW
 70
               0
  9
$PUCSORGTOP
 10
0.0
 20
0.0
 30
0.0
  9
$PUCSORGBOTTOM
 10
0.0
 20
0.0
 30
0.0
  9
$PUCSORGLEFT
 10
0.0
 20
0.0
 30
0.0
  9
$PUCSORGRIGHT
 10
0.0
 20
0.0
 30
0.0
  9
$PUCSORGFRONT
 10
0.0
 20
0.0
 30
0.0
  9
$PUCSORGBACK
 10
0.0
 20
0.0
 30
0.0
  9
$USERI1
 70
               0
  9
$USERI2
 70
               0
  9
$USERI3
 70
               0
  9
$USERI4
 70
               0
  9
$USERI5
 70
               0
  9
$USERR1
 40
0.0
  9
$USERR2
 40
0.0
  9
$USERR3
 40
0.0
  9
$USERR4
 40
0.0
  9
$USERR5
 40
0.0
  9
$WORLDVIEW
 70
               1
  9
$SHADEDGE
 70
               3
  9
$SHADEDIF
 70
              70
  9
$TILEMODE
 70
               1
  9
$MAXACTVP
 70
              64
  9
$PINSBASE
 10
0.0
 20
0.0
 30
0.0
  9
$PLIMCHECK
 70
               0
  9
$PEXTMIN
 10
1.0000000000000000E+20
 20
1.0000000000000000E+20
 30
1.0000000000000000E+20
  9
$PEXTMAX
 10
-1.0000000000000000E+20
 20
-1.0000000000000000E+20
 30
-1.0000000000000000E+20
  9
$PLIMMIN
 10
0.0
 20
0.0
  9
$PLIMMAX
 10
12.0
 20
9.0
  9
$UNITMODE
 70
               0
  9
$VISRETAIN
 70
               0
  9
$PLINEGEN
 70
               1
  9
$PSLTSCALE
 70
               0
  9
$TREEDEPTH
 70
            3020
  9
$CMLSTYLE
  2
Standard
  9
$CMLJUST
 70
               0
  9
$CMLSCALE
 40
1.0
  9
$PROXYGRAPHICS
 70
               0
  9
$MEASUREMENT
 70
               1
  9
$CELWEIGHT
370
               0
  9
$ENDCAPS
280
               0
  9
$JOINSTYLE
280
               0
  9
$LWDISPLAY
290
               1
  9
$INSUNITS
 70
               4
  9
$HYPERLINKBASE
  1

  9
$STYLESHEET
  1

  9
$XEDIT
290
               1
  9
$CEPSNTYPE
380
               0
  9
$PSTYLEMODE
290
               1
  9
$FINGERPRINTGUID
  2

  9
$VERSIONGUID
  2

  9
$EXTNAMES
290
               1
  9
$PSVPSCALE
 40
0.0
  0
ENDSEC
  0
SECTION
  2
CLASSES
  0
CLASS
  1
LWPOLYLINE
  2
AcDbPolyline
  3
AutoCAD 2000
 90
        0
280
               0
281
               1
  0
CLASS
  1
IMAGE
  2
AcDbRasterImage
  3
ISM
 90
      127
280
               0
281
               1
  0
CLASS
  1
OLE2FRAME
  2
AcDbOle2Frame
  3
AutoCAD 2000
 90
        0
280
               0
281
               1
  0
CLASS
  1
HATCH
  2
AcDbHatch
  3
AutoCAD 2000
 90
        0
280
               0
281
               1
  0
CLASS
  1
DICTIONARYVAR
  2
AcDbDictionaryVar
  3
AutoCAD 2000
 90
        0
280
               0
281
               0
  0
CLASS
  1
RASTERVARIABLES
  2
AcDbRasterVariables
  3
ISM
 90
        0
280
               0
281
               0
  0
CLASS
  1
IMAGEDEF
  2
AcDbRasterImageDef
  3
ISM
 90
        0
280
               0
281
               0
  0
CLASS
  1
IMAGEDEF_REACTOR
  2
AcDbRasterImageDefReactor
  3
ISM
 90
        1
280
               0
281
               0
  0
CLASS
  1
IDBUFFER
  2
AcDbIdBuffer
  3
AutoCAD 2000
 90
        0
280
               0
281
               0
  0
CLASS
  1
SPATIAL_FILTER
  2
AcDbSpatialFilter
  3
AutoCAD 2000
 90
        0
280
               0
281
               0
  0
CLASS
  1
XRECORD
  2
AcDbXrecord
  3
AutoCAD 2000
 90
        0
280
               0
281
               0
  0
CLASS
  1
SORTENTSTABLE
  2
AcDbSortentsTable
  3
AutoCAD 2000
 90
        0
280
               0
281
               0
  0
CLASS
  1
LAYER_INDEX
  2
AcDbLayerIndex
  3
AutoCAD 2000
 90
        0
280
               0
281
               0
  0
CLASS
  1
SPATIAL_INDEX
  2
AcDbSpatialIndex
  3
AutoCAD 2000
 90
        0
280
               0
281
               0
  0
CLASS
  1
OBJECT_PTR
  2
CAseDLPNTableRecord
  3
"ASE-LPNTableRecord"
 90
        1
280
               0
281
               0
  0
CLASS
  1
LAYOUT
  2
AcDbLayout
  3
AutoCAD 2000
 90
        0
280
               0
281
               0
  0
CLASS
  1
PLOTSETTINGS
  2
AcDbPlotSettings
  3
AutoCAD 2000
 90
        0
280
               0
281
               0
  0
CLASS
  1
ACDBDICTIONARYWDFLT
  2
AcDbDictionaryWithDefault
  3
AutoCAD 2000
 90
        0
280
               0
281
               0
  0
CLASS
  1
ACDBPLACEHOLDER
  2
AcDbPlaceHolder
  3
AutoCAD 2000
 90
        0
280
               0
281
               0
  0
CLASS
  1
VBA_PROJECT
  2
AcDbVbaProject
  3
acadvba
 90
        0
280
               0
281
               0
  0
CLASS
  1
WIPEOUT
  2
AcDbWipeout
  3
WipeOut|AutoCAD Express Tool|expresstools@autodesk.com
 90
      127
280
               0
281
               1
  0
CLASS
  1
WIPEOUTVARIABLES
  2
AcDbWipeoutVariables
  3
WipeOut|AutoCAD Express Tool|expresstools@autodesk.com
 90
        0
280
               0
281
               0
  0
CLASS
  1
RTEXT
  2
RText
  3
RText|AutoCAD Express Tool|expresstools@autodesk.com
 90
        0
280
               0
281
               1
  0
CLASS
  1
ARCALIGNEDTEXT
  2
AcDbArcAlignedText
  3
ATEXT|AutoCAD Express Tool|expresstools@autodesk.com
 90
        0
280
               0
281
               1
  0
ENDSEC
  0
SECTION
  2
TABLES
  0
TABLE
  2
VPORT
  5
7
100
AcDbSymbolTable
 70
               1
  0
VPORT
  5
15
100
AcDbSymbolTableRecord
100
AcDbViewportTableRecord
  2
*ACTIVE
 70
               0
 10
0.0
 20
0.0
 11
1.0
 21
1.0
 12
-1067.3970341097997
 22
771.27525983687224
 13
0.0
 23
0.0
 14
1.0
 24
1.0
 15
0.0
 25
0.0
 16
0.0
 26
0.0
 36
1.0
 17
0.0
 27
0.0
 37
0.0
 40
3359.7488083271337
 41
0.688564
 42
50.0
 43
0.0
 44
0.0
 50
0.0
 51
0.0
 71
               0
 72
            2000
 73
               1
 74
               1
 75
               0
 76
               0
 77
               0
 78
               0
281
               0
 65
               0
110
0.0
120
0.0
130
0.0
111
1.0
121
0.0
131
0.0
112
0.0
122
1.0
132
0.0
345
0
346
0
 79
               0
146
0.0
  0
ENDTAB
  0
TABLE
  2
LTYPE
  5
4
100
AcDbSymbolTable
 70
              18
  0
LTYPE
  5
11
100
AcDbSymbolTableRecord
100
AcDbLinetypeTableRecord
  2
ByBlock
 70
              64
  3

 72
              65
 73
               0
 40
0.0
  0
LTYPE
  5
12
100
AcDbSymbolTableRecord
100
AcDbLinetypeTableRecord
  2
ByLayer
 70
              64
  3

 72
              65
 73
               0
 40
0.0
  0
LTYPE
  5
13
100
AcDbSymbolTableRecord
100
AcDbLinetypeTableRecord
  2
Continuous
 70
              64
  3
Solid line
 72
              65
 73
               0
 40
0.0
  0
LTYPE
  5
26
100
AcDbSymbolTableRecord
100
AcDbLinetypeTableRecord
  2
STYLE_01
 70
               0
  3

 72
              65
 73
               2
 40
0.4166412353515625
 49
0.208282470703125
 74
               0
 49
-0.2083587646484375
 74
               0
  0
LTYPE
  5
27
100
AcDbSymbolTableRecord
100
AcDbLinetypeTableRecord
  2
STYLE_02
 70
               0
  3

 72
              65
 73
               2
 40
0.694427490234375
 49
0.4860687255859375
 74
               0
 49
-0.2083587646484375
 74
               0
  0
LTYPE
  5
28
100
AcDbSymbolTableRecord
100
AcDbLinetypeTableRecord
  2
STYLE_03
 70
               0
  3

 72
              65
 73
               2
 40
1.25
 49
1.0416412353515625
 74
               0
 49
-0.2083587646484375
 74
               0
  0
LTYPE
  5
29
100
AcDbSymbolTableRecord
100
AcDbLinetypeTableRecord
  2
STYLE_04
 70
               0
  3

 72
              65
 73
               2
 40
1.5277099609375
 49
1.319427490234375
 74
               0
 49
-0.208282470703125
 74
               0
  0
LTYPE
  5
2A
100
AcDbSymbolTableRecord
100
AcDbLinetypeTableRecord
  2
STYLE_05
 70
               0
  3

 72
              65
 73
               2
 40
0.208282470703125
 49
0.069427490234375
 74
               0
 49
-0.13885498046875
 74
               0
  0
LTYPE
  5
2B
100
AcDbSymbolTableRecord
100
AcDbLinetypeTableRecord
  2
STYLE_06
 70
               0
  3

 72
              65
 73
               4
 40
1.0416412353515625
 49
0.625
 74
               0
 49
-0.208282470703125
 74
               0
 49
0.069427490234375
 74
               0
 49
-0.1389312744140625
 74
               0
  0
LTYPE
  5
2C
100
AcDbSymbolTableRecord
100
AcDbLinetypeTableRecord
  2
STYLE_07
 70
               0
  3

 72
              65
 73
               6
 40
1.875
 49
0.625
 74
               0
 49
-0.208282470703125
 74
               0
 49
0.625
 74
               0
 49
-0.2083587646484375
 74
               0
 49
0.069427490234375
 74
               0
 49
-0.1389312744140625
 74
               0
  0
LTYPE
  5
2D
100
AcDbSymbolTableRecord
100
AcDbLinetypeTableRecord
  2
STYLE_08
 70
               0
  3

 72
              65
 73
               6
 40
1.25
 49
0.625
 74
               0
 49
-0.208282470703125
 74
               0
 49
0.069427490234375
 74
               0
 49
-0.1389312744140625
 74
               0
 49
0.069427490234375
 74
               0
 49
-0.1389312744140625
 74
               0
  0
LTYPE
  5
2E
100
AcDbSymbolTableRecord
100
AcDbLinetypeTableRecord
  2
STYLE_09
 70
               0
  3

 72
              65
 73
               4
 40
5.0
 49
3.75
 74
               0
 49
-0.2777862548828125
 74
               0
 49
0.694427490234375
 74
               0
 49
-0.2777862548828125
 74
               0
  0
LTYPE
  5
2F
100
AcDbSymbolTableRecord
100
AcDbLinetypeTableRecord
  2
STYLE_10
 70
               0
  3

 72
              65
 73
               6
 40
5.9375
 49
3.75
 74
               0
 49
-0.2777862548828125
 74
               0
 49
0.694427490234375
 74
               0
 49
-0.2777862548828125
 74
               0
 49
0.625
 74
               0
 49
-0.3125
 74
               0
  0
LTYPE
  5
30
100
AcDbSymbolTableRecord
100
AcDbLinetypeTableRecord
  2
STYLE_11
 70
               0
  3

 72
              65
 73
               2
 40
0.13885498046875
 49
0.069427490234375
 74
               0
 49
-0.069427490234375
 74
               0
  0
LTYPE
  5
31
100
AcDbSymbolTableRecord
100
AcDbLinetypeTableRecord
  2
STYLE_12
 70
               0
  3

 72
              65
 73
               6
 40
0.0098425196850394
 49
0.0049591064453125
 74
               0
 49
-0.0009918212890625
 74
               0
 49
0.0009918212890625
 74
               0
 49
-0.0009918212890625
 74
               0
 49
0.0009918212890625
 74
               0
 49
-0.0009918212890625
 74
               0
  0
LTYPE
  5
32
100
AcDbSymbolTableRecord
100
AcDbLinetypeTableRecord
  2
STYLE_13
 70
               0
  3

 72
              65
 73
               2
 40
0.2777862548828125
 49
0.2083587646484375
 74
               0
 49
-0.069427490234375
 74
               0
  0
LTYPE
  5
33
100
AcDbSymbolTableRecord
100
AcDbLinetypeTableRecord
  2
STYLE_14
 70
               0
  3

 72
              65
 73
               2
 40
0.3472137451171875
 49
0.208282470703125
 74
               0
 49
-0.1389312744140625
 74
               0
  0
LTYPE
  5
34
100
AcDbSymbolTableRecord
100
AcDbLinetypeTableRecord
  2
STYLE_15
 70
               0
  3

 72
              65
 73
               2
 40
0.2777099609375
 49
0.208282470703125
 74
               0
 49
-0.069427490234375
 74
               0
  0
ENDTAB
  0
TABLE
  2
LAYER
  5
2
100
AcDbSymbolTable
 70
               6
  0
LAYER
  5
14
100
AcDbSymbolTableRecord
100
AcDbLayerTableRecord
  2
0
 70
               0
 62
               7
  6
Continuous
290
               1
370
              18
390
1D
  0
LAYER
  5
35
100
AcDbSymbolTableRecord
100
AcDbLayerTableRecord
  2
一般
 70
               0
 62
               7
  6
Continuous
290
               1
370
               5
390
1D
  0
LAYER
  5
36
100
AcDbSymbolTableRecord
100
AcDbLayerTableRecord
  2
2
 70
               0
 62
               7
  6
Continuous
290
               1
370
               5
390
1D
  0
LAYER
  5
37
100
AcDbSymbolTableRecord
100
AcDbLayerTableRecord
  2
3
 70
               0
 62
               7
  6
Continuous
290
               1
370
               5
390
1D
  0
LAYER
  5
38
100
AcDbSymbolTableRecord
100
AcDbLayerTableRecord
  2
寸法
 70
               0
 62
               7
  6
Continuous
290
               1
370
               5
390
1D
  0
LAYER
  5
39
100
AcDbSymbolTableRecord
100
AcDbLayerTableRecord
  2
1
 70
               0
 62
               7
  6
Continuous
290
               1
370
              15
390
1D
  0
ENDTAB
  0
TABLE
  2
STYLE
  5
3
100
AcDbSymbolTable
 70
               3
  0
STYLE
  5
17
100
AcDbSymbolTableRecord
100
AcDbTextStyleTableRecord
  2
Standard
 70
               0
 40
0.0
 41
1.0
 50
0.0
 71
               0
 42
0.0
  3
txt
  4
BIGFONT.SHX
  0
STYLE
  5
24
100
AcDbSymbolTableRecord
100
AcDbTextStyleTableRecord
  2
Arial
 70
               0
 40
0.0
 41
1.0
 50
0.0
 71
               0
 42
0.0
  3

  4
Arial
1001
ACAD
1000
Arial
1071
        0
  0
STYLE
  5
25
100
AcDbSymbolTableRecord
100
AcDbTextStyleTableRecord
  2
Arial (bold)
 70
               0
 40
0.0
 41
1.0
 50
0.0
 71
               0
 42
0.0
  3

  4
Arial
1001
ACAD
1000
Arial
1071
 33554432
  0
ENDTAB
  0
TABLE
  2
VIEW
  5
5
100
AcDbSymbolTable
 70
               0
  0
ENDTAB
  0
TABLE
  2
UCS
  5
6
100
AcDbSymbolTable
 70
               0
  0
ENDTAB
  0
TABLE
  2
APPID
  5
8
100
AcDbSymbolTable
 70
               1
  0
APPID
  5
16
100
AcDbSymbolTableRecord
100
AcDbRegAppTableRecord
  2
ACAD
 70
               0
  0
ENDTAB
  0
TABLE
  2
DIMSTYLE
  5
9
100
AcDbSymbolTable
 70
               1
100
AcDbDimStyleTable
 71
               0
  0
DIMSTYLE
105
18
100
AcDbSymbolTableRecord
100
AcDbDimStyleTableRecord
  2
Standard
 70
               0
  3

  4

 40
1.0
 41
0.18
 42
0.0625
 43
0.38
 44
0.18
 45
0.0
 46
0.0
 47
0.0
 48
0.0
 71
               0
 72
               0
 73
               1
 74
               1
 75
               0
 76
               0
 77
               0
 78
               0
 79
               0
140
0.18
141
0.09
142
0.0
143
25.399999999999999
144
1.0
145
0.0
146
1.0
147
0.09
148
0.0
170
               0
171
               2
172
               0
173
               0
174
               0
175
               0
176
               0
177
               0
178
               0
179
               0
271
               4
272
               4
273
               2
274
               2
275
               0
276
               0
277
               2
278
              46
279
               0
280
               0
281
               0
282
               0
283
               1
284
               0
285
               0
286
               0
288
               0
289
               3
340
17
341
0
342
0
343
0
344
0
371
              -2
372
              -2
  0
ENDTAB
  0
TABLE
  2
BLOCK_RECORD
  5
1
100
AcDbSymbolTable
 70
               0
  0
BLOCK_RECORD
  5
A
100
AcDbSymbolTableRecord
100
AcDbBlockTableRecord
  2
*MODEL_SPACE
340
20
  0
BLOCK_RECORD
  5
B
100
AcDbSymbolTableRecord
100
AcDbBlockTableRecord
  2
*PAPER_SPACE
340
21
  0
ENDTAB
  0
ENDSEC
  0
SECTION
  2
BLOCKS
  0
BLOCK
  5
D
100
AcDbEntity
  8
0
390
0
100
AcDbBlockBegin
  2
*MODEL_SPACE
 70
               0
 10
0.0
 20
0.0
 30
0.0
  3
*MODEL_SPACE
  1

  0
ENDBLK
  5
E
100
AcDbEntity
  8
0
390
0
100
AcDbBlockEnd
  0
BLOCK
  5
F
100
AcDbEntity
 67
               1
  8
0
390
0
100
AcDbBlockBegin
  2
*PAPER_SPACE
 70
               0
 10
0.0
 20
0.0
 30
0.0
  3
*PAPER_SPACE
  1

  0
ENDBLK
  5
10
100
AcDbEntity
 67
               1
  8
0
390
0
100
AcDbBlockEnd
  0
ENDSEC
  0
SECTION
  2
ENTITIES
  0
WIPEOUT
  5
3A
100
AcDbEntity
  8
1
370
               5
390
0
  6
Continuous
 62
               7
 92
        0
100
AcDbWipeout
 90
        0
 10
385.83379472809133
 20
2173.2014668857141
 30
0.0
 11
550.49869791666674
 21
0.0
 31
0.0
 12
0.0
 22
550.49869791666674
 32
0.0
 13
1.0
 23
1.0
340
0
 70
               7
280
               1
281
              50
282
              50
283
               0
360
0
 71
               2
 91
        5
 14
-0.5
 24
0.5
 14
0.5
 24
0.5
 14
0.5
 24
0.3231300690898166
 14
-0.5
 24
0.3231300690898166
 14
-0.5
 24
0.5
  0
MTEXT
  5
3B
100
AcDbEntity
  8
1
390
0
 62
               7
100
AcDbMText
 10
385.83379472809133
 20
2255.0018141079363
 30
0.0
 40
60.633680555555543
 41
0.0
 71
               1
 72
               1
  1
N.TEC,Co.Ltd.
  7
Arial
 73
               1
 44
0.9673603504928806
  0
MTEXT
  5
3C
100
AcDbEntity
  8
2
390
0
 62
               7
100
AcDbMText
 10
371.36264436147508
 20
2433.0433445559947
 30
0.0
 40
60.633680555555543
 41
0.0
 71
               1
 72
               1
  1
GAGGENAU  RW464
  7
Arial (bold)
 73
               1
 44
0.992595837897043
  0
LINE
  5
3D
100
AcDbEntity
  8
一般
370
              18
390
0
  6
Continuous
 62
               7
100
AcDbLine
 10
-1713.6982017931996
 20
-634.69149289467941
 30
0.0
 11
-1713.6982017931996
 21
-729.69149289467941
 31
0.0
  0
LINE
  5
3E
100
AcDbEntity
  8
一般
370
              18
390
0
  6
Continuous
 62
               7
100
AcDbLine
 10
-1739.7572054867414
 20
-729.74830756541587
 30
0.0
 11
-1739.7572054867414
 21
-809.74830756541587
 31
0.0
  0
LINE
  5
3F
100
AcDbEntity
  8
一般
370
              18
390
0
  6
Continuous
 62
               7
100
AcDbLine
 10
-1762.8833964080377
 20
-809.83354273502709
 30
0.0
 11
-1762.8833964080377
 21
-884.83354273502709
 31
0.0
  0
LINE
  5
40
100
AcDbEntity
  8
一般
370
               5
390
0
  6
Continuous
 62
               7
100
AcDbLine
 10
-3333.4999914094815
 20
1661.4448751095458
 30
0.0
 11
-2731.4999914094815
 21
1661.4448751095458
 31
0.0
  0
POLYLINE
  5
41
100
AcDbEntity
  8
一般
370
              18
390
0
  6
Continuous
 62
               7
100
AcDb2dPolyline
 66
               1
 10
0.0
 20
0.0
 30
0.0
 70
               1
 75
               5
  0
VERTEX
  5
42
100
AcDbEntity
  8
一般
370
              18
390
0
  6
Continuous
 62
               7
100
AcDbVertex
100
AcDb2dVertex
 10
-3334.1262053794335
 20
2269.4578154101773
 30
0.0
  0
VERTEX
  5
43
100
AcDbEntity
  8
一般
370
              18
390
0
  6
Continuous
 62
               7
100
AcDbVertex
100
AcDb2dVertex
 10
-2731.1262053794335
 20
2269.4578154101773
 30
0.0
  0
VERTEX
  5
44
100
AcDbEntity
  8
一般
370
              18
390
0
  6
Continuous
 62
               7
100
AcDbVertex
100
AcDb2dVertex
 10
-2731.1262053794335
 20
1714.457815410185
 30
0.0
  0
VERTEX
  5
45
100
AcDbEntity
  8
一般
370
              18
390
0
  6
Continuous
 62
               7
100
AcDbVertex
100
AcDb2dVertex
 10
-3334.1262053794335
 20
1714.457815410185
 30
0.0
  0
SEQEND
  5
46
100
AcDbEntity
  8
一般
370
              18
390
0
  6
Continuous
 62
               7
  0
POLYLINE
  5
48
100
AcDbEntity
  8
一般
370
              15
390
0
  6
Continuous
 62
               7
100
AcDb2dPolyline
 66
               1
 10
0.0
 20
0.0
 30
0.0
 70
               1
 75
               5
  0
VERTEX
  5
49
100
AcDbEntity
  8
一般
370
              15
390
0
  6
Continuous
 62
               7
100
AcDbVertex
100
AcDb2dVertex
 10
-3331.0686531965512
 20
1714.4625928205392
 30
0.0
  0
VERTEX
  5
4A
100
AcDbEntity
  8
一般
370
              15
390
0
  6
Continuous
 62
               7
100
AcDbVertex
100
AcDb2dVertex
 10
-2733.4999914094815
 20
1714.4625928205392
 30
0.0
  0
VERTEX
  5
4B
100
AcDbEntity
  8
一般
370
              15
390
0
  6
Continuous
 62
               7
100
AcDbVertex
100
AcDb2dVertex
 10
-2733.4999914094815
 20
1693.4625928205396
 30
0.0
  0
VERTEX
  5
4C
100
AcDbEntity
  8
一般
370
              15
390
0
  6
Continuous
 62
               7
100
AcDbVertex
100
AcDb2dVertex
 10
-3331.0686531965512
 20
1693.4625928205396
 30
0.0
  0
SEQEND
  5
4D
100
AcDbEntity
  8
一般
370
              15
390
0
  6
Continuous
 62
               7
  0
POLYLINE
  5
4F
100
AcDbEntity
  8
一般
370
              15
390
0
  6
Continuous
 62
               7
100
AcDb2dPolyline
 66
               1
 10
0.0
 20
0.0
 30
0.0
 70
               1
 75
               5
  0
VERTEX
  5
50
100
AcDbEntity
  8
一般
370
              15
390
0
  6
Continuous
 62
               7
100
AcDbVertex
100
AcDb2dVertex
 10
-3331.0686531965512
 20
1693.4625928205396
 30
0.0
  0
VERTEX
  5
51
100
AcDbEntity
  8
一般
370
              15
390
0
  6
Continuous
 62
               7
100
AcDbVertex
100
AcDb2dVertex
 10
-2733.4999914094815
 20
1693.4625928205396
 30
0.0
  0
VERTEX
  5
52
100
AcDbEntity
  8
一般
370
              15
390
0
  6
Continuous
 62
               7
100
AcDbVertex
100
AcDb2dVertex
 10
-2733.4999914094815
 20
1663.4625928205401
 30
0.0
  0
VERTEX
  5
53
100
AcDbEntity
  8
一般
370
              15
390
0
  6
Continuous
 62
               7
100
AcDbVertex
100
AcDb2dVertex
 10
-3331.0686531965512
 20
1663.4625928205401
 30
0.0
  0
SEQEND
  5
54
100
AcDbEntity
  8
一般
370
              15
390
0
  6
Continuous
 62
               7
  0
POLYLINE
  5
56
100
AcDbEntity
  8
一般
370
              18
390
0
  6
Continuous
 62
               7
100
AcDb2dPolyline
 66
               1
 10
0.0
 20
0.0
 30
0.0
 70
               1
 75
               5
  0
VERTEX
  5
57
100
AcDbEntity
  8
一般
370
              18
390
0
  6
Continuous
 62
               7
100
AcDbVertex
100
AcDb2dVertex
 10
-3334.1262053794335
 20
1216.3554746355671
 30
0.0
  0
VERTEX
  5
58
100
AcDbEntity
  8
一般
370
              18
390
0
  6
Continuous
 62
               7
100
AcDbVertex
100
AcDb2dVertex
 10
-2731.1262053794335
 20
1216.3554746355671
 30
0.0
  0
VERTEX
  5
59
100
AcDbEntity
  8
一般
370
              18
390
0
  6
Continuous
 62
               7
100
AcDbVertex
100
AcDb2dVertex
 10
-2731.1262053794335
 20
-884.64452536443287
 30
0.0
  0
VERTEX
  5
5A
100
AcDbEntity
  8
一般
370
              18
390
0
  6
Continuous
 62
               7
100
AcDbVertex
100
AcDb2dVertex
 10
-3334.1262053794335
 20
-884.64452536443287
 30
0.0
  0
SEQEND
  5
5B
100
AcDbEntity
  8
一般
370
              18
390
0
  6
Continuous
 62
               7
  0
LINE
  5
5D
100
AcDbEntity
  8
一般
370
              18
390
0
  6
Continuous
 62
               7
100
AcDbLine
 10
-2265.6942440740427
 20
-634.66959197526421
 30
0.0
 11
-1710.6942440740427
 21
-634.66959197526421
 31
0.0
  0
LINE
  5
5E
100
AcDbEntity
  8
一般
370
              18
390
0
  6
Continuous
 62
               7
100
AcDbLine
 10
-3334.0872190117025
 20
-634.66959197526421
 30
0.0
 11
-2731.0872190117029
 21
-634.66959197526421
 31
0.0
  0
LINE
  5
5F
100
AcDbEntity
  8
一般
370
              18
390
0
  6
Continuous
 62
               7
100
AcDbLine
 10
-3334.0872190117025
 20
-729.66959197526421
 30
0.0
 11
-2731.0872190117029
 21
-729.66959197526421
 31
0.0
  0
LINE
  5
60
100
AcDbEntity
  8
一般
370
              18
390
0
  6
Continuous
 62
               7
100
AcDbLine
 10
-3334.0872190117025
 20
-809.66959197526421
 30
0.0
 11
-2731.0872190117029
 21
-809.66959197526421
 31
0.0
  0
POLYLINE
  5
61
100
AcDbEntity
  8
寸法
370
              15
390
0
  6
Continuous
 62
               7
100
AcDb2dPolyline
 66
               1
 10
0.0
 20
0.0
 30
0.0
 70
               1
 75
               5
  0
VERTEX
  5
62
100
AcDbEntity
  8
寸法
370
              15
390
0
  6
Continuous
 62
               7
100
AcDbVertex
100
AcDb2dVertex
 10
-3321.1108791151873
 20
-905.08554359516393
 30
0.0
  0
VERTEX
  5
63
100
AcDbEntity
  8
寸法
370
              15
390
0
  6
Continuous
 62
               7
100
AcDbVertex
100
AcDb2dVertex
 10
-3291.1108791151873
 20
-905.08554359516393
 30
0.0
  0
VERTEX
  5
64
100
AcDbEntity
  8
寸法
370
              15
390
0
  6
Continuous
 62
               7
100
AcDbVertex
100
AcDb2dVertex
 10
-3291.1108791151873
 20
-908.58554359516393
 30
0.0
  0
VERTEX
  5
65
100
AcDbEntity
  8
寸法
370
              15
390
0
  6
Continuous
 62
               7
100
AcDbVertex
100
AcDb2dVertex
 10
-3321.1108791151873
 20
-908.58554359516393
 30
0.0
  0
SEQEND
  5
66
100
AcDbEntity
  8
寸法
370
              15
390
0
  6
Continuous
 62
               7
  0
WIPEOUT
  5
68
100
AcDbEntity
  8
寸法
370
              15
390
0
  6
Continuous
 62
               7
 92
        0
100
AcDbWipeout
 90
        0
 10
-3312.7684003569548
 20
-905.08554359516393
 30
0.0
 11
20.471841620039868
 21
0.0
 31
0.0
 12
0.0
 22
20.471841620039868
 32
0.0
 13
1.0
 23
1.0
340
0
 70
               7
280
               1
281
              50
282
              50
283
               0
360
0
 71
               2
 91
        5
 14
-0.5
 24
-0.5
 14
0.1350185899872491
 24
-0.5
 14
0.1350185899872491
 24
0.5
 14
-0.5
 24
0.5
 14
-0.5
 24
-0.5
  0
POLYLINE
  5
69
100
AcDbEntity
  8
寸法
370
              15
390
0
  6
Continuous
 62
               7
100
AcDb2dPolyline
 66
               1
 10
0.0
 20
0.0
 30
0.0
 70
               1
 75
               5
  0
VERTEX
  5
6A
100
AcDbEntity
  8
寸法
370
              15
390
0
  6
Continuous
 62
               7
100
AcDbVertex
100
AcDb2dVertex
 10
-3312.7684003569548
 20
-884.61370197512406
 30
0.0
  0
VERTEX
  5
6B
100
AcDbEntity
  8
寸法
370
              15
390
0
  6
Continuous
 62
               7
100
AcDbVertex
100
AcDb2dVertex
 10
-3299.7684003569548
 20
-884.61370197512406
 30
0.0
  0
VERTEX
  5
6C
100
AcDbEntity
  8
寸法
370
              15
390
0
  6
Continuous
 62
               7
100
AcDbVertex
100
AcDb2dVertex
 10
-3299.7684003569548
 20
-905.08554359516393
 30
0.0
  0
VERTEX
  5
6D
100
AcDbEntity
  8
寸法
370
              15
390
0
  6
Continuous
 62
               7
100
AcDbVertex
100
AcDb2dVertex
 10
-3312.7684003569548
 20
-905.08554359516393
 30
0.0
  0
SEQEND
  5
6E
100
AcDbEntity
  8
寸法
370
              15
390
0
  6
Continuous
 62
               7
  0
POLYLINE
  5
70
100
AcDbEntity
  8
寸法
370
              15
390
0
  6
Continuous
 62
               7
100
AcDb2dPolyline
 66
               1
 10
0.0
 20
0.0
 30
0.0
 70
               1
 75
               5
  0
VERTEX
  5
71
100
AcDbEntity
  8
寸法
370
              15
390
0
  6
Continuous
 62
               7
100
AcDbVertex
100
AcDb2dVertex
 10
-2774.0501567332967
 20
-905.08554359516393
 30
0.0
  0
VERTEX
  5
72
100
AcDbEntity
  8
寸法
370
              15
390
0
  6
Continuous
 62
               7
100
AcDbVertex
100
AcDb2dVertex
 10
-2744.0501567332967
 20
-905.08554359516393
 30
0.0
  0
VERTEX
  5
73
100
AcDbEntity
  8
寸法
370
              15
390
0
  6
Continuous
 62
               7
100
AcDbVertex
100
AcDb2dVertex
 10
-2744.0501567332967
 20
-908.58554359516393
 30
0.0
  0
VERTEX
  5
74
100
AcDbEntity
  8
寸法
370
              15
390
0
  6
Continuous
 62
               7
100
AcDbVertex
100
AcDb2dVertex
 10
-2774.0501567332967
 20
-908.58554359516393
 30
0.0
  0
SEQEND
  5
75
100
AcDbEntity
  8
寸法
370
              15
390
0
  6
Continuous
 62
               7
  0
WIPEOUT
  5
77
100
AcDbEntity
  8
寸法
370
              15
390
0
  6
Continuous
 62
               7
 92
        0
100
AcDbWipeout
 90
        0
 10
-2765.7076779750641
 20
-905.08554359516393
 30
0.0
 11
20.471841620039868
 21
0.0
 31
0.0
 12
0.0
 22
20.471841620039868
 32
0.0
 13
1.0
 23
1.0
340
0
 70
               7
280
               1
281
              50
282
              50
283
               0
360
0
 71
               2
 91
        5
 14
-0.5
 24
-0.5
 14
0.1350185899872491
 24
-0.5
 14
0.1350185899872491
 24
0.5
 14
-0.5
 24
0.5
 14
-0.5
 24
-0.5
  0
POLYLINE
  5
78
100
AcDbEntity
  8
寸法
370
              15
390
0
  6
Continuous
 62
               7
100
AcDb2dPolyline
 66
               1
 10
0.0
 20
0.0
 30
0.0
 70
               1
 75
               5
  0
VERTEX
  5
79
100
AcDbEntity
  8
寸法
370
              15
390
0
  6
Continuous
 62
               7
100
AcDbVertex
100
AcDb2dVertex
 10
-2765.7076779750641
 20
-884.61370197512406
 30
0.0
  0
VERTEX
  5
7A
100
AcDbEntity
  8
寸法
370
              15
390
0
  6
Continuous
 62
               7
100
AcDbVertex
100
AcDb2dVertex
 10
-2752.7076779750641
 20
-884.61370197512406
 30
0.0
  0
VERTEX
  5
7B
100
AcDbEntity
  8
寸法
370
              15
390
0
  6
Continuous
 62
               7
100
AcDbVertex
100
AcDb2dVertex
 10
-2752.7076779750641
 20
-905.08554359516393
 30
0.0
  0
VERTEX
  5
7C
100
AcDbEntity
  8
寸法
370
              15
390
0
  6
Continuous
 62
               7
100
AcDbVertex
100
AcDb2dVertex
 10
-2765.7076779750641
 20
-905.08554359516393
 30
0.0
  0
SEQEND
  5
7D
100
AcDbEntity
  8
寸法
370
              15
390
0
  6
Continuous
 62
               7
  0
POLYLINE
  5
7F
100
AcDbEntity
  8
一般
370
              18
390
0
  6
Continuous
 62
               7
100
AcDb2dPolyline
 66
               1
 10
0.0
 20
0.0
 30
0.0
 70
               1
 75
               5
  0
VERTEX
  5
80
100
AcDbEntity
  8
一般
370
              18
390
0
  6
Continuous
 62
               7
100
AcDbVertex
100
AcDb2dVertex
 10
-3334.1371813310743
 20
1136.3285772981517
 30
0.0
  0
VERTEX
  5
81
100
AcDbEntity
  8
一般
370
              18
390
0
  6
Continuous
 62
               7
100
AcDbVertex
100
AcDb2dVertex
 10
-2731.1371813310743
 20
1136.3285772981517
 30
0.0
  0
VERTEX
  5
82
100
AcDbEntity
  8
一般
370
              18
390
0
  6
Continuous
 62
               7
100
AcDbVertex
100
AcDb2dVertex
 10
-2731.1371813310743
 20
-633.67142270184831
 30
0.0
  0
VERTEX
  5
83
100
AcDbEntity
  8
一般
370
              18
390
0
  6
Continuous
 62
               7
100
AcDbVertex
100
AcDb2dVertex
 10
-3334.1371813310743
 20
-633.67142270184831
 30
0.0
  0
SEQEND
  5
84
100
AcDbEntity
  8
一般
370
              18
390
0
  6
Continuous
 62
               7
  0
LINE
  5
86
100
AcDbEntity
  8
一般
370
               5
390
0
  6
STYLE_06
 62
               7
100
AcDbLine
 10
-3334.0999914094809
 20
1136.0212003316628
 30
0.0
 11
-2731.2999914094817
 21
251.22120033166391
 31
0.0
  0
LINE
  5
87
100
AcDbEntity
  8
一般
370
               5
390
0
  6
STYLE_06
 62
               7
100
AcDbLine
 10
-2731.2999914094812
 20
251.02120033166386
 30
0.0
 11
-3334.0999914094809
 21
-633.77879966834462
 31
0.0
  0
LINE
  5
88
100
AcDbEntity
  8
一般
370
              18
390
0
  6
Continuous
 62
               7
100
AcDbLine
 10
-2265.6942440740427
 20
-634.66959197526421
 30
0.0
 11
-2265.6942440740427
 21
1216.3554746355749
 31
0.0
  0
LINE
  5
89
100
AcDbEntity
  8
一般
370
              18
390
0
  6
Continuous
 62
               7
100
AcDbLine
 10
-1762.8833964080377
 20
-884.64452536443287
 30
0.0
 11
-2235.4252671870245
 21
-884.64452536443287
 31
0.0
  0
LINE
  5
8A
100
AcDbEntity
  8
一般
370
              18
390
0
  6
Continuous
 62
               7
100
AcDbLine
 10
-2265.6942440740427
 20
1216.3554746355749
 30
0.0
 11
-1710.6942440740427
 21
1216.3554746355749
 31
0.0
  0
LINE
  5
8B
100
AcDbEntity
  8
一般
370
              18
390
0
  6
Continuous
 62
               7
100
AcDbLine
 10
-2235.4252671870245
 20
-884.44367028723946
 30
0.0
 11
-2235.4252671870249
 21
-634.66959197526421
 31
0.0
  0
LINE
  5
8C
100
AcDbEntity
  8
一般
370
              18
390
0
  6
Continuous
 62
               7
100
AcDbLine
 10
-1710.6942440740427
 20
-634.66959197526421
 30
0.0
 11
-1710.6942440740427
 21
1216.3554746355749
 31
0.0
  0
POLYLINE
  5
8D
100
AcDbEntity
  8
一般
370
              15
390
0
  6
Continuous
 62
               7
100
AcDb2dPolyline
 66
               1
 10
0.0
 20
0.0
 30
0.0
 70
               1
 75
               5
  0
VERTEX
  5
8E
100
AcDbEntity
  8
一般
370
              15
390
0
  6
Continuous
 62
               7
100
AcDbVertex
100
AcDb2dVertex
 10
-1710.69847797285
 20
1136.371200331655
 30
0.0
  0
VERTEX
  5
8F
100
AcDbEntity
  8
一般
370
              15
390
0
  6
Continuous
 62
               7
100
AcDbVertex
100
AcDb2dVertex
 10
-1689.69847797285
 20
1136.371200331655
 30
0.0
  0
VERTEX
  5
90
100
AcDbEntity
  8
一般
370
              15
390
0
  6
Continuous
 62
               7
100
AcDbVertex
100
AcDb2dVertex
 10
-1689.69847797285
 20
-610.62879966834498
 30
0.0
  0
VERTEX
  5
91
100
AcDbEntity
  8
一般
370
              15
390
0
  6
Continuous
 62
               7
100
AcDbVertex
100
AcDb2dVertex
 10
-1710.69847797285
 20
-610.62879966834498
 30
0.0
  0
SEQEND
  5
92
100
AcDbEntity
  8
一般
370
              15
390
0
  6
Continuous
 62
               7
  0
POLYLINE
  5
94
100
AcDbEntity
  8
一般
370
              15
390
0
  6
Continuous
 62
               7
100
AcDb2dPolyline
 66
               1
 10
0.0
 20
0.0
 30
0.0
 70
               1
 75
               5
  0
VERTEX
  5
95
100
AcDbEntity
  8
一般
370
              15
390
0
  6
Continuous
 62
               7
100
AcDbVertex
100
AcDb2dVertex
 10
-1689.69847797285
 20
1136.371200331655
 30
0.0
  0
VERTEX
  5
96
100
AcDbEntity
  8
一般
370
              15
390
0
  6
Continuous
 62
               7
100
AcDbVertex
100
AcDb2dVertex
 10
-1659.69847797285
 20
1136.371200331655
 30
0.0
  0
VERTEX
  5
97
100
AcDbEntity
  8
一般
370
              15
390
0
  6
Continuous
 62
               7
100
AcDbVertex
100
AcDb2dVertex
 10
-1659.69847797285
 20
-633.62879966834498
 30
0.0
  0
VERTEX
  5
98
100
AcDbEntity
  8
一般
370
              15
390
0
  6
Continuous
 62
               7
100
AcDbVertex
100
AcDb2dVertex
 10
-1689.69847797285
 20
-633.62879966834498
 30
0.0
  0
SEQEND
  5
99
100
AcDbEntity
  8
一般
370
              15
390
0
  6
Continuous
 62
               7
  0
POLYLINE
  5
9B
100
AcDbEntity
  8
寸法
370
              15
390
0
  6
Continuous
 62
               7
100
AcDb2dPolyline
 66
               1
 10
0.0
 20
0.0
 30
0.0
 70
               1
 75
               5
  0
VERTEX
  5
9C
100
AcDbEntity
  8
寸法
370
              15
390
0
  6
Continuous
 62
               7
100
AcDbVertex
100
AcDb2dVertex
 10
-1791.2681060813215
 20
-905.08554359516393
 30
0.0
  0
VERTEX
  5
9D
100
AcDbEntity
  8
寸法
370
              15
390
0
  6
Continuous
 62
               7
100
AcDbVertex
100
AcDb2dVertex
 10
-1761.2681060813215
 20
-905.08554359516393
 30
0.0
  0
VERTEX
  5
9E
100
AcDbEntity
  8
寸法
370
              15
390
0
  6
Continuous
 62
               7
100
AcDbVertex
100
AcDb2dVertex
 10
-1761.2681060813215
 20
-908.58554359516393
 30
0.0
  0
VERTEX
  5
9F
100
AcDbEntity
  8
寸法
370
              15
390
0
  6
Continuous
 62
               7
100
AcDbVertex
100
AcDb2dVertex
 10
-1791.2681060813215
 20
-908.58554359516393
 30
0.0
  0
SEQEND
  5
A0
100
AcDbEntity
  8
寸法
370
              15
390
0
  6
Continuous
 62
               7
  0
WIPEOUT
  5
A2
100
AcDbEntity
  8
寸法
370
              15
390
0
  6
Continuous
 62
               7
 92
        0
100
AcDbWipeout
 90
        0
 10
-1782.925627323089
 20
-905.08554359516393
 30
0.0
 11
20.471841620039868
 21
0.0
 31
0.0
 12
0.0
 22
20.471841620039868
 32
0.0
 13
1.0
 23
1.0
340
0
 70
               7
280
               1
281
              50
282
              50
283
               0
360
0
 71
               2
 91
        5
 14
-0.5
 24
-0.5
 14
0.1350185899872491
 24
-0.5
 14
0.1350185899872491
 24
0.5
 14
-0.5
 24
0.5
 14
-0.5
 24
-0.5
  0
POLYLINE
  5
A3
100
AcDbEntity
  8
寸法
370
              15
390
0
  6
Continuous
 62
               7
100
AcDb2dPolyline
 66
               1
 10
0.0
 20
0.0
 30
0.0
 70
               1
 75
               5
  0
VERTEX
  5
A4
100
AcDbEntity
  8
寸法
370
              15
390
0
  6
Continuous
 62
               7
100
AcDbVertex
100
AcDb2dVertex
 10
-1782.925627323089
 20
-884.61370197512406
 30
0.0
  0
VERTEX
  5
A5
100
AcDbEntity
  8
寸法
370
              15
390
0
  6
Continuous
 62
               7
100
AcDbVertex
100
AcDb2dVertex
 10
-1769.925627323089
 20
-884.61370197512406
 30
0.0
  0
VERTEX
  5
A6
100
AcDbEntity
  8
寸法
370
              15
390
0
  6
Continuous
 62
               7
100
AcDbVertex
100
AcDb2dVertex
 10
-1769.925627323089
 20
-905.08554359516393
 30
0.0
  0
VERTEX
  5
A7
100
AcDbEntity
  8
寸法
370
              15
390
0
  6
Continuous
 62
               7
100
AcDbVertex
100
AcDb2dVertex
 10
-1782.925627323089
 20
-905.08554359516393
 30
0.0
  0
SEQEND
  5
A8
100
AcDbEntity
  8
寸法
370
              15
390
0
  6
Continuous
 62
               7
  0
LINE
  5
AA
100
AcDbEntity
  8
一般
370
              18
390
0
  6
Continuous
 62
               7
100
AcDbLine
 10
-1713.8833964080377
 20
-729.64452536443287
 30
0.0
 11
-1739.8833964080377
 21
-729.64452536443287
 31
0.0
  0
LINE
  5
AB
100
AcDbEntity
  8
一般
370
              18
390
0
  6
Continuous
 62
               7
100
AcDbLine
 10
-1739.8833964080377
 20
-809.64452536443287
 30
0.0
 11
-1762.8833964080377
 21
-809.64452536443287
 31
0.0
  0
POLYLINE
  5
AC
100
AcDbEntity
  8
一般
370
               5
390
0
  6
Continuous
 62
               7
100
AcDb2dPolyline
 66
               1
 10
0.0
 20
0.0
 30
0.0
 70
               1
 75
               5
  0
VERTEX
  5
AD
100
AcDbEntity
  8
一般
370
               5
390
0
  6
Continuous
 62
               7
100
AcDbVertex
100
AcDb2dVertex
 10
-1659.69847797285
 20
1136.371200331655
 30
0.0
  0
VERTEX
  5
AE
100
AcDbEntity
  8
一般
370
               5
390
0
  6
Continuous
 62
               7
100
AcDbVertex
100
AcDb2dVertex
 10
-1657.69847797285
 20
1136.371200331655
 30
0.0
  0
VERTEX
  5
AF
100
AcDbEntity
  8
一般
370
               5
390
0
  6
Continuous
 62
               7
100
AcDbVertex
100
AcDb2dVertex
 10
-1657.69847797285
 20
-633.62879966834498
 30
0.0
  0
VERTEX
  5
B0
100
AcDbEntity
  8
一般
370
               5
390
0
  6
Continuous
 62
               7
100
AcDbVertex
100
AcDb2dVertex
 10
-1659.69847797285
 20
-633.62879966834498
 30
0.0
  0
SEQEND
  5
B1
100
AcDbEntity
  8
一般
370
               5
390
0
  6
Continuous
 62
               7
  0
LINE
  5
B3
100
AcDbEntity
  8
一般
370
               5
390
0
  6
Continuous
 62
               7
100
AcDbLine
 10
-714.51562440428006
 20
1661.4448751095458
 30
0.0
 11
-112.51562440428052
 21
1661.4448751095458
 31
0.0
  0
POLYLINE
  5
B4
100
AcDbEntity
  8
一般
370
              18
390
0
  6
Continuous
 62
               7
100
AcDb2dPolyline
 66
               1
 10
0.0
 20
0.0
 30
0.0
 70
               1
 75
               5
  0
VERTEX
  5
B5
100
AcDbEntity
  8
一般
370
              18
390
0
  6
Continuous
 62
               7
100
AcDbVertex
100
AcDb2dVertex
 10
-715.14183837423207
 20
2269.4578154101773
 30
0.0
  0
VERTEX
  5
B6
100
AcDbEntity
  8
一般
370
              18
390
0
  6
Continuous
 62
               7
100
AcDbVertex
100
AcDb2dVertex
 10
-112.14183837423207
 20
2269.4578154101773
 30
0.0
  0
VERTEX
  5
B7
100
AcDbEntity
  8
一般
370
              18
390
0
  6
Continuous
 62
               7
100
AcDbVertex
100
AcDb2dVertex
 10
-112.14183837423207
 20
1714.457815410185
 30
0.0
  0
VERTEX
  5
B8
100
AcDbEntity
  8
一般
370
              18
390
0
  6
Continuous
 62
               7
100
AcDbVertex
100
AcDb2dVertex
 10
-715.14183837423207
 20
1714.457815410185
 30
0.0
  0
SEQEND
  5
B9
100
AcDbEntity
  8
一般
370
              18
390
0
  6
Continuous
 62
               7
  0
POLYLINE
  5
BB
100
AcDbEntity
  8
一般
370
              15
390
0
  6
Continuous
 62
               7
100
AcDb2dPolyline
 66
               1
 10
0.0
 20
0.0
 30
0.0
 70
               1
 75
               5
  0
VERTEX
  5
BC
100
AcDbEntity
  8
一般
370
              15
390
0
  6
Continuous
 62
               7
100
AcDbVertex
100
AcDb2dVertex
 10
-712.08428619134975
 20
1714.4625928205392
 30
0.0
  0
VERTEX
  5
BD
100
AcDbEntity
  8
一般
370
              15
390
0
  6
Continuous
 62
               7
100
AcDbVertex
100
AcDb2dVertex
 10
-114.51562440428006
 20
1714.4625928205392
 30
0.0
  0
VERTEX
  5
BE
100
AcDbEntity
  8
一般
370
              15
390
0
  6
Continuous
 62
               7
100
AcDbVertex
100
AcDb2dVertex
 10
-114.51562440428006
 20
1693.4625928205396
 30
0.0
  0
VERTEX
  5
BF
100
AcDbEntity
  8
一般
370
              15
390
0
  6
Continuous
 62
               7
100
AcDbVertex
100
AcDb2dVertex
 10
-712.08428619134975
 20
1693.4625928205396
 30
0.0
  0
SEQEND
  5
C0
100
AcDbEntity
  8
一般
370
              15
390
0
  6
Continuous
 62
               7
  0
POLYLINE
  5
C2
100
AcDbEntity
  8
一般
370
              15
390
0
  6
Continuous
 62
               7
100
AcDb2dPolyline
 66
               1
 10
0.0
 20
0.0
 30
0.0
 70
               1
 75
               5
  0
VERTEX
  5
C3
100
AcDbEntity
  8
一般
370
              15
390
0
  6
Continuous
 62
               7
100
AcDbVertex
100
AcDb2dVertex
 10
-712.08428619134975
 20
1693.4625928205396
 30
0.0
  0
VERTEX
  5
C4
100
AcDbEntity
  8
一般
370
              15
390
0
  6
Continuous
 62
               7
100
AcDbVertex
100
AcDb2dVertex
 10
-114.51562440428006
 20
1693.4625928205396
 30
0.0
  0
VERTEX
  5
C5
100
AcDbEntity
  8
一般
370
              15
390
0
  6
Continuous
 62
               7
100
AcDbVertex
100
AcDb2dVertex
 10
-114.51562440428006
 20
1663.4625928205401
 30
0.0
  0
VERTEX
  5
C6
100
AcDbEntity
  8
一般
370
              15
390
0
  6
Continuous
 62
               7
100
AcDbVertex
100
AcDb2dVertex
 10
-712.08428619134975
 20
1663.4625928205401
 30
0.0
  0
SEQEND
  5
C7
100
AcDbEntity
  8
一般
370
              15
390
0
  6
Continuous
 62
               7
  0
POLYLINE
  5
C9
100
AcDbEntity
  8
一般
370
              18
390
0
  6
Continuous
 62
               7
100
AcDb2dPolyline
 66
               1
 10
0.0
 20
0.0
 30
0.0
 70
               1
 75
               5
  0
VERTEX
  5
CA
100
AcDbEntity
  8
一般
370
              18
390
0
  6
Continuous
 62
               7
100
AcDbVertex
100
AcDb2dVertex
 10
-715.14183837423207
 20
1216.3554746355671
 30
0.0
  0
VERTEX
  5
CB
100
AcDbEntity
  8
一般
370
              18
390
0
  6
Continuous
 62
               7
100
AcDbVertex
100
AcDb2dVertex
 10
-112.14183837423207
 20
1216.3554746355671
 30
0.0
  0
VERTEX
  5
CC
100
AcDbEntity
  8
一般
370
              18
390
0
  6
Continuous
 62
               7
100
AcDbVertex
100
AcDb2dVertex
 10
-112.14183837423207
 20
-884.64452536443287
 30
0.0
  0
VERTEX
  5
CD
100
AcDbEntity
  8
一般
370
              18
390
0
  6
Continuous
 62
               7
100
AcDbVertex
100
AcDb2dVertex
 10
-715.14183837423207
 20
-884.64452536443287
 30
0.0
  0
SEQEND
  5
CE
100
AcDbEntity
  8
一般
370
              18
390
0
  6
Continuous
 62
               7
  0
LINE
  5
D0
100
AcDbEntity
  8
一般
370
              18
390
0
  6
Continuous
 62
               7
100
AcDbLine
 10
353.29012293115613
 20
-634.66959197526421
 30
0.0
 11
908.29012293115613
 21
-634.66959197526421
 31
0.0
  0
LINE
  5
D1
100
AcDbEntity
  8
一般
370
              18
390
0
  6
Continuous
 62
               7
100
AcDbLine
 10
-715.10285200650151
 20
-634.66959197526421
 30
0.0
 11
-112.10285200650196
 21
-634.66959197526421
 31
0.0
  0
LINE
  5
D2
100
AcDbEntity
  8
一般
370
              18
390
0
  6
Continuous
 62
               7
100
AcDbLine
 10
-715.10285200650151
 20
-729.66959197526421
 30
0.0
 11
-112.10285200650196
 21
-729.66959197526421
 31
0.0
  0
LINE
  5
D3
100
AcDbEntity
  8
一般
370
              18
390
0
  6
Continuous
 62
               7
100
AcDbLine
 10
-715.10285200650151
 20
-809.66959197526421
 30
0.0
 11
-112.10285200650196
 21
-809.66959197526421
 31
0.0
  0
POLYLINE
  5
D4
100
AcDbEntity
  8
寸法
370
              15
390
0
  6
Continuous
 62
               7
100
AcDb2dPolyline
 66
               1
 10
0.0
 20
0.0
 30
0.0
 70
               1
 75
               5
  0
VERTEX
  5
D5
100
AcDbEntity
  8
寸法
370
              15
390
0
  6
Continuous
 62
               7
100
AcDbVertex
100
AcDb2dVertex
 10
-702.12651210998592
 20
-905.08554359516393
 30
0.0
  0
VERTEX
  5
D6
100
AcDbEntity
  8
寸法
370
              15
390
0
  6
Continuous
 62
               7
100
AcDbVertex
100
AcDb2dVertex
 10
-672.12651210998592
 20
-905.08554359516393
 30
0.0
  0
VERTEX
  5
D7
100
AcDbEntity
  8
寸法
370
              15
390
0
  6
Continuous
 62
               7
100
AcDbVertex
100
AcDb2dVertex
 10
-672.12651210998592
 20
-908.58554359516393
 30
0.0
  0
VERTEX
  5
D8
100
AcDbEntity
  8
寸法
370
              15
390
0
  6
Continuous
 62
               7
100
AcDbVertex
100
AcDb2dVertex
 10
-702.12651210998592
 20
-908.58554359516393
 30
0.0
  0
SEQEND
  5
D9
100
AcDbEntity
  8
寸法
370
              15
390
0
  6
Continuous
 62
               7
  0
WIPEOUT
  5
DB
100
AcDbEntity
  8
寸法
370
              15
390
0
  6
Continuous
 62
               7
 92
        0
100
AcDbWipeout
 90
        0
 10
-693.78403335175335
 20
-905.08554359516393
 30
0.0
 11
20.471841620039868
 21
0.0
 31
0.0
 12
0.0
 22
20.471841620039868
 32
0.0
 13
1.0
 23
1.0
340
0
 70
               7
280
               1
281
              50
282
              50
283
               0
360
0
 71
               2
 91
        5
 14
-0.5
 24
-0.5
 14
0.1350185899872491
 24
-0.5
 14
0.1350185899872491
 24
0.5
 14
-0.5
 24
0.5
 14
-0.5
 24
-0.5
  0
POLYLINE
  5
DC
100
AcDbEntity
  8
寸法
370
              15
390
0
  6
Continuous
 62
               7
100
AcDb2dPolyline
 66
               1
 10
0.0
 20
0.0
 30
0.0
 70
               1
 75
               5
  0
VERTEX
  5
DD
100
AcDbEntity
  8
寸法
370
              15
390
0
  6
Continuous
 62
               7
100
AcDbVertex
100
AcDb2dVertex
 10
-693.78403335175335
 20
-884.61370197512406
 30
0.0
  0
VERTEX
  5
DE
100
AcDbEntity
  8
寸法
370
              15
390
0
  6
Continuous
 62
               7
100
AcDbVertex
100
AcDb2dVertex
 10
-680.78403335175335
 20
-884.61370197512406
 30
0.0
  0
VERTEX
  5
DF
100
AcDbEntity
  8
寸法
370
              15
390
0
  6
Continuous
 62
               7
100
AcDbVertex
100
AcDb2dVertex
 10
-680.78403335175335
 20
-905.08554359516393
 30
0.0
  0
VERTEX
  5
E0
100
AcDbEntity
  8
寸法
370
              15
390
0
  6
Continuous
 62
               7
100
AcDbVertex
100
AcDb2dVertex
 10
-693.78403335175335
 20
-905.08554359516393
 30
0.0
  0
SEQEND
  5
E1
100
AcDbEntity
  8
寸法
370
              15
390
0
  6
Continuous
 62
               7
  0
POLYLINE
  5
E3
100
AcDbEntity
  8
寸法
370
              15
390
0
  6
Continuous
 62
               7
100
AcDb2dPolyline
 66
               1
 10
0.0
 20
0.0
 30
0.0
 70
               1
 75
               5
  0
VERTEX
  5
E4
100
AcDbEntity
  8
寸法
370
              15
390
0
  6
Continuous
 62
               7
100
AcDbVertex
100
AcDb2dVertex
 10
-155.06578972809552
 20
-905.08554359516393
 30
0.0
  0
VERTEX
  5
E5
100
AcDbEntity
  8
寸法
370
              15
390
0
  6
Continuous
 62
               7
100
AcDbVertex
100
AcDb2dVertex
 10
-125.06578972809552
 20
-905.08554359516393
 30
0.0
  0
VERTEX
  5
E6
100
AcDbEntity
  8
寸法
370
              15
390
0
  6
Continuous
 62
               7
100
AcDbVertex
100
AcDb2dVertex
 10
-125.06578972809552
 20
-908.58554359516393
 30
0.0
  0
VERTEX
  5
E7
100
AcDbEntity
  8
寸法
370
              15
390
0
  6
Continuous
 62
               7
100
AcDbVertex
100
AcDb2dVertex
 10
-155.06578972809552
 20
-908.58554359516393
 30
0.0
  0
SEQEND
  5
E8
100
AcDbEntity
  8
寸法
370
              15
390
0
  6
Continuous
 62
               7
  0
WIPEOUT
  5
EA
100
AcDbEntity
  8
寸法
370
              15
390
0
  6
Continuous
 62
               7
 92
        0
100
AcDbWipeout
 90
        0
 10
-146.72331096986295
 20
-905.08554359516393
 30
0.0
 11
20.471841620039868
 21
0.0
 31
0.0
 12
0.0
 22
20.471841620039868
 32
0.0
 13
1.0
 23
1.0
340
0
 70
               7
280
               1
281
              50
282
              50
283
               0
360
0
 71
               2
 91
        5
 14
-0.5
 24
-0.5
 14
0.1350185899872491
 24
-0.5
 14
0.1350185899872491
 24
0.5
 14
-0.5
 24
0.5
 14
-0.5
 24
-0.5
  0
POLYLINE
  5
EB
100
AcDbEntity
  8
寸法
370
              15
390
0
  6
Continuous
 62
               7
100
AcDb2dPolyline
 66
               1
 10
0.0
 20
0.0
 30
0.0
 70
               1
 75
               5
  0
VERTEX
  5
EC
100
AcDbEntity
  8
寸法
370
              15
390
0
  6
Continuous
 62
               7
100
AcDbVertex
100
AcDb2dVertex
 10
-146.72331096986295
 20
-884.61370197512406
 30
0.0
  0
VERTEX
  5
ED
100
AcDbEntity
  8
寸法
370
              15
390
0
  6
Continuous
 62
               7
100
AcDbVertex
100
AcDb2dVertex
 10
-133.72331096986295
 20
-884.61370197512406
 30
0.0
  0
VERTEX
  5
EE
100
AcDbEntity
  8
寸法
370
              15
390
0
  6
Continuous
 62
               7
100
AcDbVertex
100
AcDb2dVertex
 10
-133.72331096986295
 20
-905.08554359516393
 30
0.0
  0
VERTEX
  5
EF
100
AcDbEntity
  8
寸法
370
              15
390
0
  6
Continuous
 62
               7
100
AcDbVertex
100
AcDb2dVertex
 10
-146.72331096986295
 20
-905.08554359516393
 30
0.0
  0
SEQEND
  5
F0
100
AcDbEntity
  8
寸法
370
              15
390
0
  6
Continuous
 62
               7
  0
LINE
  5
F2
100
AcDbEntity
  8
一般
370
               5
390
0
  6
STYLE_06
 62
               7
100
AcDbLine
 10
-715.11562440427997
 20
1136.0212003316628
 30
0.0
 11
-112.3156244042807
 21
251.22120033166391
 31
0.0
  0
LINE
  5
F3
100
AcDbEntity
  8
一般
370
               5
390
0
  6
STYLE_06
 62
               7
100
AcDbLine
 10
-112.31562440428024
 20
251.02120033166386
 30
0.0
 11
-715.11562440427952
 21
-633.77879966834462
 31
0.0
  0
LINE
  5
F4
100
AcDbEntity
  8
一般
370
              18
390
0
  6
Continuous
 62
               7
100
AcDbLine
 10
353.29012293115613
 20
-634.66959197526421
 30
0.0
 11
353.29012293115613
 21
1216.3554746355749
 31
0.0
  0
LINE
  5
F5
100
AcDbEntity
  8
一般
370
              18
390
0
  6
Continuous
 62
               7
100
AcDbLine
 10
353.29012293115613
 20
1216.3554746355749
 30
0.0
 11
908.29012293115613
 21
1216.3554746355749
 31
0.0
  0
POLYLINE
  5
F6
100
AcDbEntity
  8
寸法
370
              15
390
0
  6
STYLE_05
 62
               7
100
AcDb2dPolyline
 66
               1
 10
0.0
 20
0.0
 30
0.0
 70
               1
 75
               5
  0
VERTEX
  5
F7
100
AcDbEntity
  8
寸法
370
              15
390
0
  6
STYLE_05
 62
               7
100
AcDbVertex
100
AcDb2dVertex
 10
868.3051335440183
 20
1204.2212003316627
 30
0.0
  0
VERTEX
  5
F8
100
AcDbEntity
  8
寸法
370
              15
390
0
  6
STYLE_05
 62
               7
100
AcDbVertex
100
AcDb2dVertex
 10
908.50537612989979
 20
1204.2212003316627
 30
0.0
  0
VERTEX
  5
F9
100
AcDbEntity
  8
寸法
370
              15
390
0
  6
STYLE_05
 62
               7
100
AcDbVertex
100
AcDb2dVertex
 10
908.50537612989979
 20
1157.0550528903486
 30
0.0
  0
VERTEX
  5
FA
100
AcDbEntity
  8
寸法
370
              15
390
0
  6
STYLE_05
 62
               7
100
AcDbVertex
100
AcDb2dVertex
 10
868.3051335440183
 20
1157.0550528903486
 30
0.0
  0
SEQEND
  5
FB
100
AcDbEntity
  8
寸法
370
              15
390
0
  6
STYLE_05
 62
               7
  0
LINE
  5
FD
100
AcDbEntity
  8
一般
370
              18
390
0
  6
Continuous
 62
               7
100
AcDbLine
 10
908.29012293115613
 20
-634.66959197526421
 30
0.0
 11
908.29012293115613
 21
1216.3554746355749
 31
0.0
  0
POLYLINE
  5
FE
100
AcDbEntity
  8
一般
370
              15
390
0
  6
Continuous
 62
               7
100
AcDb2dPolyline
 66
               1
 10
0.0
 20
0.0
 30
0.0
 70
               1
 75
               5
  0
VERTEX
  5
FF
100
AcDbEntity
  8
一般
370
              15
390
0
  6
Continuous
 62
               7
100
AcDbVertex
100
AcDb2dVertex
 10
908.28588903234902
 20
1136.371200331655
 30
0.0
  0
VERTEX
  5
100
100
AcDbEntity
  8
一般
370
              15
390
0
  6
Continuous
 62
               7
100
AcDbVertex
100
AcDb2dVertex
 10
929.28588903234913
 20
1136.371200331655
 30
0.0
  0
VERTEX
  5
101
100
AcDbEntity
  8
一般
370
              15
390
0
  6
Continuous
 62
               7
100
AcDbVertex
100
AcDb2dVertex
 10
929.28588903234913
 20
-610.62879966834498
 30
0.0
  0
VERTEX
  5
102
100
AcDbEntity
  8
一般
370
              15
390
0
  6
Continuous
 62
               7
100
AcDbVertex
100
AcDb2dVertex
 10
908.28588903234902
 20
-610.62879966834498
 30
0.0
  0
SEQEND
  5
103
100
AcDbEntity
  8
一般
370
              15
390
0
  6
Continuous
 62
               7
  0
POLYLINE
  5
105
100
AcDbEntity
  8
一般
370
              15
390
0
  6
Continuous
 62
               7
100
AcDb2dPolyline
 66
               1
 10
0.0
 20
0.0
 30
0.0
 70
               1
 75
               5
  0
VERTEX
  5
106
100
AcDbEntity
  8
一般
370
              15
390
0
  6
Continuous
 62
               7
100
AcDbVertex
100
AcDb2dVertex
 10
929.28588903234902
 20
1136.371200331655
 30
0.0
  0
VERTEX
  5
107
100
AcDbEntity
  8
一般
370
              15
390
0
  6
Continuous
 62
               7
100
AcDbVertex
100
AcDb2dVertex
 10
959.28588903234925
 20
1136.371200331655
 30
0.0
  0
VERTEX
  5
108
100
AcDbEntity
  8
一般
370
              15
390
0
  6
Continuous
 62
               7
100
AcDbVertex
100
AcDb2dVertex
 10
959.28588903234925
 20
-633.62879966834498
 30
0.0
  0
VERTEX
  5
109
100
AcDbEntity
  8
一般
370
              15
390
0
  6
Continuous
 62
               7
100
AcDbVertex
100
AcDb2dVertex
 10
929.28588903234902
 20
-633.62879966834498
 30
0.0
  0
SEQEND
  5
10A
100
AcDbEntity
  8
一般
370
              15
390
0
  6
Continuous
 62
               7
  0
POLYLINE
  5
10C
100
AcDbEntity
  8
一般
370
               5
390
0
  6
Continuous
 62
               7
100
AcDb2dPolyline
 66
               1
 10
0.0
 20
0.0
 30
0.0
 70
               1
 75
               5
  0
VERTEX
  5
10D
100
AcDbEntity
  8
一般
370
               5
390
0
  6
Continuous
 62
               7
100
AcDbVertex
100
AcDb2dVertex
 10
959.22722603902901
 20
1136.371200331655
 30
0.0
  0
VERTEX
  5
10E
100
AcDbEntity
  8
一般
370
               5
390
0
  6
Continuous
 62
               7
100
AcDbVertex
100
AcDb2dVertex
 10
961.22722603902901
 20
1136.371200331655
 30
0.0
  0
VERTEX
  5
10F
100
AcDbEntity
  8
一般
370
               5
390
0
  6
Continuous
 62
               7
100
AcDbVertex
100
AcDb2dVertex
 10
961.22722603902901
 20
-633.62879966834498
 30
0.0
  0
VERTEX
  5
110
100
AcDbEntity
  8
一般
370
               5
390
0
  6
Continuous
 62
               7
100
AcDbVertex
100
AcDb2dVertex
 10
959.22722603902901
 20
-633.62879966834498
 30
0.0
  0
SEQEND
  5
111
100
AcDbEntity
  8
一般
370
               5
390
0
  6
Continuous
 62
               7
  0
WIPEOUT
  5
113
100
AcDbEntity
  8
一般
370
              18
390
0
  6
Continuous
 62
               7
 92
        0
100
AcDbWipeout
 90
        0
 10
-715.15281432587335
 20
-805.82646560885996
 30
0.0
 11
2029.0
 21
0.0
 31
0.0
 12
0.0
 22
2029.0
 32
0.0
 13
1.0
 23
1.0
340
0
 70
               7
280
               1
281
              50
282
              50
283
               0
360
0
 71
               2
 91
        5
 14
-0.5
 24
-0.5
 14
-0.2028092656481025
 24
-0.5
 14
-0.2028092656481025
 24
0.5
 14
-0.5
 24
0.5
 14
-0.5
 24
-0.5
  0
POLYLINE
  5
114
100
AcDbEntity
  8
一般
370
              18
390
0
  6
Continuous
 62
               7
100
AcDb2dPolyline
 66
               1
 10
0.0
 20
0.0
 30
0.0
 70
               1
 75
               5
  0
VERTEX
  5
115
100
AcDbEntity
  8
一般
370
              18
390
0
  6
Continuous
 62
               7
100
AcDbVertex
100
AcDb2dVertex
 10
-715.15281432587335
 20
1223.17353439114
 30
0.0
  0
VERTEX
  5
116
100
AcDbEntity
  8
一般
370
              18
390
0
  6
Continuous
 62
               7
100
AcDbVertex
100
AcDb2dVertex
 10
-112.15281432587335
 20
1223.17353439114
 30
0.0
  0
VERTEX
  5
117
100
AcDbEntity
  8
一般
370
              18
390
0
  6
Continuous
 62
               7
100
AcDbVertex
100
AcDb2dVertex
 10
-112.15281432587335
 20
-805.82646560885996
 30
0.0
  0
VERTEX
  5
118
100
AcDbEntity
  8
一般
370
              18
390
0
  6
Continuous
 62
               7
100
AcDbVertex
100
AcDb2dVertex
 10
-715.15281432587335
 20
-805.82646560885996
 30
0.0
  0
SEQEND
  5
119
100
AcDbEntity
  8
一般
370
              18
390
0
  6
Continuous
 62
               7
  0
WIPEOUT
  5
11B
100
AcDbEntity
  8
一般
370
              15
390
0
  6
Continuous
 62
               7
 92
        0
100
AcDbWipeout
 90
        0
 10
961.39834648012425
 20
-805.82646560885996
 30
0.0
 11
2029.0
 21
0.0
 31
0.0
 12
0.0
 22
2029.0
 32
0.0
 13
1.0
 23
1.0
340
0
 70
               7
280
               1
281
              50
282
              50
283
               0
360
0
 71
               2
 91
        5
 14
-0.5
 24
-0.5
 14
-0.4906357811729916
 24
-0.5
 14
-0.4906357811729916
 24
0.5
 14
-0.5
 24
0.5
 14
-0.5
 24
-0.5
  0
POLYLINE
  5
11C
100
AcDbEntity
  8
一般
370
              15
390
0
  6
Continuous
 62
               7
100
AcDb2dPolyline
 66
               1
 10
0.0
 20
0.0
 30
0.0
 70
               1
 75
               5
  0
VERTEX
  5
11D
100
AcDbEntity
  8
一般
370
              15
390
0
  6
Continuous
 62
               7
100
AcDbVertex
100
AcDb2dVertex
 10
961.39834648012425
 20
1223.17353439114
 30
0.0
  0
VERTEX
  5
11E
100
AcDbEntity
  8
一般
370
              15
390
0
  6
Continuous
 62
               7
100
AcDbVertex
100
AcDb2dVertex
 10
980.39834648012425
 20
1223.17353439114
 30
0.0
  0
VERTEX
  5
11F
100
AcDbEntity
  8
一般
370
              15
390
0
  6
Continuous
 62
               7
100
AcDbVertex
100
AcDb2dVertex
 10
980.39834648012425
 20
-805.82646560885996
 30
0.0
  0
VERTEX
  5
120
100
AcDbEntity
  8
一般
370
              15
390
0
  6
Continuous
 62
               7
100
AcDbVertex
100
AcDb2dVertex
 10
961.39834648012425
 20
-805.82646560885996
 30
0.0
  0
SEQEND
  5
121
100
AcDbEntity
  8
一般
370
              15
390
0
  6
Continuous
 62
               7
  0
WIPEOUT
  5
123
100
AcDbEntity
  8
寸法
370
              15
390
0
  6
Continuous
 62
               7
 92
        0
100
AcDbWipeout
 90
        0
 10
908.5053761298999
 20
1157.2212003316624
 30
0.0
 11
50.836575494950694
 21
0.0
 31
0.0
 12
0.0
 22
50.836575494950694
 32
0.0
 13
1.0
 23
1.0
340
0
 70
               7
280
               1
281
              50
282
              50
283
               0
360
0
 71
               2
 91
        5
 14
-0.5
 24
-0.4245311971233875
 14
0.5
 24
-0.4245311971233875
 14
0.5
 24
0.5
 14
-0.5
 24
0.5
 14
-0.5
 24
-0.4245311971233875
  0
POLYLINE
  5
124
100
AcDbEntity
  8
寸法
370
              15
390
0
  6
Continuous
 62
               7
100
AcDb2dPolyline
 66
               1
 10
0.0
 20
0.0
 30
0.0
 70
               1
 75
               5
  0
VERTEX
  5
125
100
AcDbEntity
  8
寸法
370
              15
390
0
  6
Continuous
 62
               7
100
AcDbVertex
100
AcDb2dVertex
 10
908.5053761298999
 20
1204.2212003316627
 30
0.0
  0
VERTEX
  5
126
100
AcDbEntity
  8
寸法
370
              15
390
0
  6
Continuous
 62
               7
100
AcDbVertex
100
AcDb2dVertex
 10
959.34195162485059
 20
1204.2212003316627
 30
0.0
  0
VERTEX
  5
127
100
AcDbEntity
  8
寸法
370
              15
390
0
  6
Continuous
 62
               7
100
AcDbVertex
100
AcDb2dVertex
 10
959.34195162485059
 20
1157.2212003316624
 30
0.0
  0
VERTEX
  5
128
100
AcDbEntity
  8
寸法
370
              15
390
0
  6
Continuous
 62
               7
100
AcDbVertex
100
AcDb2dVertex
 10
908.5053761298999
 20
1157.2212003316624
 30
0.0
  0
SEQEND
  5
129
100
AcDbEntity
  8
寸法
370
              15
390
0
  6
Continuous
 62
               7
  0
WIPEOUT
  5
12B
100
AcDbEntity
  8
寸法
370
              15
390
0
  6
Continuous
 62
               7
 92
        0
100
AcDbWipeout
 90
        0
 10
939.24211883513408
 20
1136.3255561501892
 30
0.0
 11
54.999999999999091
 21
0.0
 31
0.0
 12
0.0
 22
54.999999999999091
 32
0.0
 13
1.0
 23
1.0
340
0
 70
               7
280
               1
281
              50
282
              50
283
               0
360
0
 71
               2
 91
        5
 14
-0.5
 24
-0.5
 14
-0.1363636363636304
 24
-0.5
 14
-0.1363636363636304
 24
0.5
 14
-0.5
 24
0.5
 14
-0.5
 24
-0.5
  0
POLYLINE
  5
12C
100
AcDbEntity
  8
寸法
370
              15
390
0
  6
Continuous
 62
               7
100
AcDb2dPolyline
 66
               1
 10
0.0
 20
0.0
 30
0.0
 70
               1
 75
               5
  0
VERTEX
  5
12D
100
AcDbEntity
  8
寸法
370
              15
390
0
  6
Continuous
 62
               7
100
AcDbVertex
100
AcDb2dVertex
 10
939.24211883513408
 20
1191.3255561501883
 30
0.0
  0
VERTEX
  5
12E
100
AcDbEntity
  8
寸法
370
              15
390
0
  6
Continuous
 62
               7
100
AcDbVertex
100
AcDb2dVertex
 10
959.24211883513408
 20
1191.3255561501883
 30
0.0
  0
VERTEX
  5
12F
100
AcDbEntity
  8
寸法
370
              15
390
0
  6
Continuous
 62
               7
100
AcDbVertex
100
AcDb2dVertex
 10
959.24211883513408
 20
1136.3255561501892
 30
0.0
  0
VERTEX
  5
130
100
AcDbEntity
  8
寸法
370
              15
390
0
  6
Continuous
 62
               7
100
AcDbVertex
100
AcDb2dVertex
 10
939.24211883513408
 20
1136.3255561501892
 30
0.0
  0
SEQEND
  5
131
100
AcDbEntity
  8
寸法
370
              15
390
0
  6
Continuous
 62
               7
  0
WIPEOUT
  5
133
100
AcDbEntity
  8
寸法
370
              15
390
0
  6
Continuous
 62
               7
 92
        0
100
AcDbWipeout
 90
        0
 10
-1710.6999914094813
 20
1157.2212003316624
 30
0.0
 11
50.836575494949557
 21
0.0
 31
0.0
 12
0.0
 22
50.836575494949557
 32
0.0
 13
1.0
 23
1.0
340
0
 70
               7
280
               1
281
              50
282
              50
283
               0
360
0
 71
               2
 91
        5
 14
-0.5
 24
-0.4245311971234081
 14
0.5
 24
-0.4245311971234081
 14
0.5
 24
0.5
 14
-0.5
 24
0.5
 14
-0.5
 24
-0.4245311971234081
  0
POLYLINE
  5
134
100
AcDbEntity
  8
寸法
370
              15
390
0
  6
Continuous
 62
               7
100
AcDb2dPolyline
 66
               1
 10
0.0
 20
0.0
 30
0.0
 70
               1
 75
               5
  0
VERTEX
  5
135
100
AcDbEntity
  8
寸法
370
              15
390
0
  6
Continuous
 62
               7
100
AcDbVertex
100
AcDb2dVertex
 10
-1710.6999914094813
 20
1204.2212003316627
 30
0.0
  0
VERTEX
  5
136
100
AcDbEntity
  8
寸法
370
              15
390
0
  6
Continuous
 62
               7
100
AcDbVertex
100
AcDb2dVertex
 10
-1659.8634159145317
 20
1204.2212003316627
 30
0.0
  0
VERTEX
  5
137
100
AcDbEntity
  8
寸法
370
              15
390
0
  6
Continuous
 62
               7
100
AcDbVertex
100
AcDb2dVertex
 10
-1659.8634159145317
 20
1157.2212003316624
 30
0.0
  0
VERTEX
  5
138
100
AcDbEntity
  8
寸法
370
              15
390
0
  6
Continuous
 62
               7
100
AcDbVertex
100
AcDb2dVertex
 10
-1710.6999914094813
 20
1157.2212003316624
 30
0.0
  0
SEQEND
  5
139
100
AcDbEntity
  8
寸法
370
              15
390
0
  6
Continuous
 62
               7
  0
POLYLINE
  5
13B
100
AcDbEntity
  8
寸法
370
              15
390
0
  6
STYLE_05
 62
               7
100
AcDb2dPolyline
 66
               1
 10
0.0
 20
0.0
 30
0.0
 70
               1
 75
               5
  0
VERTEX
  5
13C
100
AcDbEntity
  8
寸法
370
              15
390
0
  6
STYLE_05
 62
               7
100
AcDbVertex
100
AcDb2dVertex
 10
-1750.9002339953622
 20
1204.2212003316627
 30
0.0
  0
VERTEX
  5
13D
100
AcDbEntity
  8
寸法
370
              15
390
0
  6
STYLE_05
 62
               7
100
AcDbVertex
100
AcDb2dVertex
 10
-1710.6999914094818
 20
1204.2212003316627
 30
0.0
  0
VERTEX
  5
13E
100
AcDbEntity
  8
寸法
370
              15
390
0
  6
STYLE_05
 62
               7
100
AcDbVertex
100
AcDb2dVertex
 10
-1710.6999914094818
 20
1157.0550528903486
 30
0.0
  0
VERTEX
  5
13F
100
AcDbEntity
  8
寸法
370
              15
390
0
  6
STYLE_05
 62
               7
100
AcDbVertex
100
AcDb2dVertex
 10
-1750.9002339953622
 20
1157.0550528903486
 30
0.0
  0
SEQEND
  5
140
100
AcDbEntity
  8
寸法
370
              15
390
0
  6
STYLE_05
 62
               7
  0
WIPEOUT
  5
142
100
AcDbEntity
  8
寸法
370
              15
390
0
  6
Continuous
 62
               7
 92
        0
100
AcDbWipeout
 90
        0
 10
-1679.839783363228
 20
1136.3255561501892
 30
0.0
 11
54.999999999999091
 21
0.0
 31
0.0
 12
0.0
 22
54.999999999999091
 32
0.0
 13
1.0
 23
1.0
340
0
 70
               7
280
               1
281
              50
282
              50
283
               0
360
0
 71
               2
 91
        5
 14
-0.5
 24
-0.5
 14
-0.1363636363636304
 24
-0.5
 14
-0.1363636363636304
 24
0.5
 14
-0.5
 24
0.5
 14
-0.5
 24
-0.5
  0
POLYLINE
  5
143
100
AcDbEntity
  8
寸法
370
              15
390
0
  6
Continuous
 62
               7
100
AcDb2dPolyline
 66
               1
 10
0.0
 20
0.0
 30
0.0
 70
               1
 75
               5
  0
VERTEX
  5
144
100
AcDbEntity
  8
寸法
370
              15
390
0
  6
Continuous
 62
               7
100
AcDbVertex
100
AcDb2dVertex
 10
-1679.839783363228
 20
1191.3255561501883
 30
0.0
  0
VERTEX
  5
145
100
AcDbEntity
  8
寸法
370
              15
390
0
  6
Continuous
 62
               7
100
AcDbVertex
100
AcDb2dVertex
 10
-1659.839783363228
 20
1191.3255561501883
 30
0.0
  0
VERTEX
  5
146
100
AcDbEntity
  8
寸法
370
              15
390
0
  6
Continuous
 62
               7
100
AcDbVertex
100
AcDb2dVertex
 10
-1659.839783363228
 20
1136.3255561501892
 30
0.0
  0
VERTEX
  5
147
100
AcDbEntity
  8
寸法
370
              15
390
0
  6
Continuous
 62
               7
100
AcDbVertex
100
AcDb2dVertex
 10
-1679.839783363228
 20
1136.3255561501892
 30
0.0
  0
SEQEND
  5
148
100
AcDbEntity
  8
寸法
370
              15
390
0
  6
Continuous
 62
               7
  0
POLYLINE
  5
14A
100
AcDbEntity
  8
0
370
              15
390
0
  6
Continuous
 62
               7
100
AcDb2dPolyline
 66
               1
 10
0.0
 20
0.0
 30
0.0
 70
               1
 75
               5
  0
VERTEX
  5
14B
100
AcDbEntity
  8
0
370
              15
390
0
  6
Continuous
 62
               7
100
AcDbVertex
100
AcDb2dVertex
 10
-3314.464422810639
 20
-644.62944102099618
 30
0.0
  0
VERTEX
  5
14C
100
AcDbEntity
  8
0
370
              15
390
0
  6
Continuous
 62
               7
100
AcDbVertex
100
AcDb2dVertex
 10
-2959.464422810639
 20
-644.62944102099618
 30
0.0
  0
VERTEX
  5
14D
100
AcDbEntity
  8
0
370
              15
390
0
  6
Continuous
 62
               7
100
AcDbVertex
100
AcDb2dVertex
 10
-2959.464422810639
 20
-719.62944102099618
 30
0.0
  0
VERTEX
  5
14E
100
AcDbEntity
  8
0
370
              15
390
0
  6
Continuous
 62
               7
100
AcDbVertex
100
AcDb2dVertex
 10
-3314.464422810639
 20
-719.62944102099618
 30
0.0
  0
SEQEND
  5
14F
100
AcDbEntity
  8
0
370
              15
390
0
  6
Continuous
 62
               7
  0
POLYLINE
  5
151
100
AcDbEntity
  8
0
370
              15
390
0
  6
Continuous
 62
               7
100
AcDb2dPolyline
 66
               1
 10
0.0
 20
0.0
 30
0.0
 70
               1
 75
               5
  0
VERTEX
  5
152
100
AcDbEntity
  8
0
370
              15
390
0
  6
Continuous
 62
               7
100
AcDbVertex
100
AcDb2dVertex
 10
-2941.0355600083235
 20
-634.62944102099618
 30
0.0
  0
VERTEX
  5
153
100
AcDbEntity
  8
0
370
              15
390
0
  6
Continuous
 62
               7
100
AcDbVertex
100
AcDb2dVertex
 10
-2731.0355600083235
 20
-634.62944102099618
 30
0.0
  0
VERTEX
  5
154
100
AcDbEntity
  8
0
370
              15
390
0
  6
Continuous
 62
               7
100
AcDbVertex
100
AcDb2dVertex
 10
-2731.0355600083235
 20
-704.62944102099618
 30
0.0
  0
VERTEX
  5
155
100
AcDbEntity
  8
0
370
              15
390
0
  6
Continuous
 62
               7
100
AcDbVertex
100
AcDb2dVertex
 10
-2941.0355600083235
 20
-704.62944102099618
 30
0.0
  0
SEQEND
  5
156
100
AcDbEntity
  8
0
370
              15
390
0
  6
Continuous
 62
               7
  0
LINE
  5
158
100
AcDbEntity
  8
0
370
              15
390
0
  6
Continuous
 62
               7
100
AcDbLine
 10
-3314.4999914094815
 20
-662.88128315646645
 30
0.0
 11
-2959.4644228106395
 21
-662.88128315646645
 31
0.0
  0
LINE
  5
159
100
AcDbEntity
  8
0
370
              15
390
0
  6
Continuous
 62
               7
100
AcDbLine
 10
-3314.4999914094815
 20
-681.63128315646645
 30
0.0
 11
-2959.4644228106395
 21
-681.63128315646645
 31
0.0
  0
LINE
  5
15A
100
AcDbEntity
  8
0
370
              15
390
0
  6
Continuous
 62
               7
100
AcDbLine
 10
-3314.4999914094815
 20
-700.38128315646645
 30
0.0
 11
-2959.4644228106395
 21
-700.38128315646645
 31
0.0
  0
WIPEOUT
  5
15B
100
AcDbEntity
  8
0
370
              15
390
0
  6
Continuous
 62
               7
 92
        0
100
AcDbWipeout
 90
        0
 10
-3063.9999914094815
 20
-719.62944102099618
 30
0.0
 11
75.0
 21
0.0
 31
0.0
 12
0.0
 22
75.0
 32
0.0
 13
1.0
 23
1.0
340
0
 70
               7
280
               1
281
              50
282
              50
283
               0
360
0
 71
               2
 91
        5
 14
-0.5
 24
-0.5
 14
-0.3666666666666667
 24
-0.5
 14
-0.3666666666666667
 24
0.5
 14
-0.5
 24
0.5
 14
-0.5
 24
-0.5
  0
POLYLINE
  5
15C
100
AcDbEntity
  8
0
370
              15
390
0
  6
Continuous
 62
               7
100
AcDb2dPolyline
 66
               1
 10
0.0
 20
0.0
 30
0.0
 70
               1
 75
               5
  0
VERTEX
  5
15D
100
AcDbEntity
  8
0
370
              15
390
0
  6
Continuous
 62
               7
100
AcDbVertex
100
AcDb2dVertex
 10
-3063.9999914094815
 20
-644.62944102099618
 30
0.0
  0
VERTEX
  5
15E
100
AcDbEntity
  8
0
370
              15
390
0
  6
Continuous
 62
               7
100
AcDbVertex
100
AcDb2dVertex
 10
-3053.9999914094815
 20
-644.62944102099618
 30
0.0
  0
VERTEX
  5
15F
100
AcDbEntity
  8
0
370
              15
390
0
  6
Continuous
 62
               7
100
AcDbVertex
100
AcDb2dVertex
 10
-3053.9999914094815
 20
-719.62944102099618
 30
0.0
  0
VERTEX
  5
160
100
AcDbEntity
  8
0
370
              15
390
0
  6
Continuous
 62
               7
100
AcDbVertex
100
AcDb2dVertex
 10
-3063.9999914094815
 20
-719.62944102099618
 30
0.0
  0
SEQEND
  5
161
100
AcDbEntity
  8
0
370
              15
390
0
  6
Continuous
 62
               7
  0
LINE
  5
163
100
AcDbEntity
  8
一般
370
              15
390
0
  6
Continuous
 62
               7
100
AcDbLine
 10
-3314.0872190117025
 20
-739.66959197526421
 30
0.0
 11
-2751.0872190117029
 21
-739.66959197526421
 31
0.0
  0
LINE
  5
164
100
AcDbEntity
  8
一般
370
              15
390
0
  6
Continuous
 62
               7
100
AcDbLine
 10
-3314.0872190117025
 20
-799.66959197526421
 30
0.0
 11
-2751.0872190117029
 21
-799.66959197526421
 31
0.0
  0
LINE
  5
165
100
AcDbEntity
  8
0
370
              15
390
0
  6
Continuous
 62
               7
100
AcDbLine
 10
-3313.9999914094815
 20
-739.72419582180464
 30
0.0
 11
-3313.9999914094815
 21
-799.72419582180464
 31
0.0
  0
LINE
  5
166
100
AcDbEntity
  8
0
370
              15
390
0
  6
Continuous
 62
               7
100
AcDbLine
 10
-2750.5278967556615
 20
-739.72419582180464
 30
0.0
 11
-2750.5278967556615
 21
-799.72419582180464
 31
0.0
  0
LINE
  5
167
100
AcDbEntity
  8
一般
370
              15
390
0
  6
Continuous
 62
               7
100
AcDbLine
 10
-3314.0872190117025
 20
-759.66959197526421
 30
0.0
 11
-2751.0872190117029
 21
-759.66959197526421
 31
0.0
  0
LINE
  5
168
100
AcDbEntity
  8
一般
370
              15
390
0
  6
Continuous
 62
               7
100
AcDbLine
 10
-3314.0872190117025
 20
-779.66959197526421
 30
0.0
 11
-2751.0872190117029
 21
-779.66959197526421
 31
0.0
  0
WIPEOUT
  5
169
100
AcDbEntity
  8
0
370
              15
390
0
  6
Continuous
 62
               7
 92
        0
100
AcDbWipeout
 90
        0
 10
-3063.9999914094815
 20
-799.88236920029658
 30
0.0
 11
60.0
 21
0.0
 31
0.0
 12
0.0
 22
60.0
 32
0.0
 13
1.0
 23
1.0
340
0
 70
               7
280
               1
281
              50
282
              50
283
               0
360
0
 71
               2
 91
        5
 14
-0.5
 24
-0.5
 14
-0.3333333333333334
 24
-0.5
 14
-0.3333333333333334
 24
0.5
 14
-0.5
 24
0.5
 14
-0.5
 24
-0.5
  0
POLYLINE
  5
16A
100
AcDbEntity
  8
0
370
              15
390
0
  6
Continuous
 62
               7
100
AcDb2dPolyline
 66
               1
 10
0.0
 20
0.0
 30
0.0
 70
               1
 75
               5
  0
VERTEX
  5
16B
100
AcDbEntity
  8
0
370
              15
390
0
  6
Continuous
 62
               7
100
AcDbVertex
100
AcDb2dVertex
 10
-3063.9999914094815
 20
-739.88236920029658
 30
0.0
  0
VERTEX
  5
16C
100
AcDbEntity
  8
0
370
              15
390
0
  6
Continuous
 62
               7
100
AcDbVertex
100
AcDb2dVertex
 10
-3053.9999914094815
 20
-739.88236920029658
 30
0.0
  0
VERTEX
  5
16D
100
AcDbEntity
  8
0
370
              15
390
0
  6
Continuous
 62
               7
100
AcDbVertex
100
AcDb2dVertex
 10
-3053.9999914094815
 20
-799.88236920029658
 30
0.0
  0
VERTEX
  5
16E
100
AcDbEntity
  8
0
370
              15
390
0
  6
Continuous
 62
               7
100
AcDbVertex
100
AcDb2dVertex
 10
-3063.9999914094815
 20
-799.88236920029658
 30
0.0
  0
SEQEND
  5
16F
100
AcDbEntity
  8
0
370
              15
390
0
  6
Continuous
 62
               7
  0
WIPEOUT
  5
171
100
AcDbEntity
  8
寸法
370
              15
390
0
  6
Continuous
 62
               7
 92
        0
100
AcDbWipeout
 90
        0
 10
-2930.4999914094815
 20
1157.2212003316624
 30
0.0
 11
188.12518006874097
 21
0.0
 31
0.0
 12
0.0
 22
188.12518006874097
 32
0.0
 13
1.0
 23
1.0
340
0
 70
               7
280
               1
281
              50
282
              50
283
               0
360
0
 71
               2
 91
        5
 14
-0.5
 24
0.2501663520915891
 14
0.5
 24
0.2501663520915891
 14
0.5
 24
0.5
 14
-0.5
 24
0.5
 14
-0.5
 24
0.2501663520915891
  0
POLYLINE
  5
172
100
AcDbEntity
  8
寸法
370
              15
390
0
  6
Continuous
 62
               7
100
AcDb2dPolyline
 66
               1
 10
0.0
 20
0.0
 30
0.0
 70
               1
 75
               5
  0
VERTEX
  5
173
100
AcDbEntity
  8
寸法
370
              15
390
0
  6
Continuous
 62
               7
100
AcDbVertex
100
AcDb2dVertex
 10
-2930.4999914094815
 20
1204.2212003316627
 30
0.0
  0
VERTEX
  5
174
100
AcDbEntity
  8
寸法
370
              15
390
0
  6
Continuous
 62
               7
100
AcDbVertex
100
AcDb2dVertex
 10
-2742.3748113407405
 20
1204.2212003316627
 30
0.0
  0
VERTEX
  5
175
100
AcDbEntity
  8
寸法
370
              15
390
0
  6
Continuous
 62
               7
100
AcDbVertex
100
AcDb2dVertex
 10
-2742.3748113407405
 20
1157.2212003316624
 30
0.0
  0
VERTEX
  5
176
100
AcDbEntity
  8
寸法
370
              15
390
0
  6
Continuous
 62
               7
100
AcDbVertex
100
AcDb2dVertex
 10
-2930.4999914094815
 20
1157.2212003316624
 30
0.0
  0
SEQEND
  5
177
100
AcDbEntity
  8
寸法
370
              15
390
0
  6
Continuous
 62
               7
  0
POLYLINE
  5
179
100
AcDbEntity
  8
0
370
              15
390
0
  6
Continuous
 62
               7
100
AcDb2dPolyline
 66
               1
 10
0.0
 20
0.0
 30
0.0
 70
               1
 75
               5
  0
VERTEX
  5
17A
100
AcDbEntity
  8
0
370
              15
390
0
  6
Continuous
 62
               7
100
AcDbVertex
100
AcDb2dVertex
 10
-2941.1897755453274
 20
1216.335065232227
 30
0.0
  0
VERTEX
  5
17B
100
AcDbEntity
  8
0
370
              15
390
0
  6
Continuous
 62
               7
100
AcDbVertex
100
AcDb2dVertex
 10
-2731.1897755453274
 20
1216.335065232227
 30
0.0
  0
VERTEX
  5
17C
100
AcDbEntity
  8
0
370
              15
390
0
  6
Continuous
 62
               7
100
AcDbVertex
100
AcDb2dVertex
 10
-2731.1897755453274
 20
1146.3350652322267
 30
0.0
  0
VERTEX
  5
17D
100
AcDbEntity
  8
0
370
              15
390
0
  6
Continuous
 62
               7
100
AcDbVertex
100
AcDb2dVertex
 10
-2941.1897755453274
 20
1146.3350652322267
 30
0.0
  0
SEQEND
  5
17E
100
AcDbEntity
  8
0
370
              15
390
0
  6
Continuous
 62
               7
  0
POLYLINE
  5
180
100
AcDbEntity
  8
0
370
              15
390
0
  6
Continuous
 62
               7
100
AcDb2dPolyline
 66
               1
 10
0.0
 20
0.0
 30
0.0
 70
               1
 75
               5
  0
VERTEX
  5
181
100
AcDbEntity
  8
0
370
              15
390
0
  6
Continuous
 62
               7
100
AcDbVertex
100
AcDb2dVertex
 10
-2934.1897755453274
 20
1209.335065232227
 30
0.0
  0
VERTEX
  5
182
100
AcDbEntity
  8
0
370
              15
390
0
  6
Continuous
 62
               7
100
AcDbVertex
100
AcDb2dVertex
 10
-2738.1897755453274
 20
1209.335065232227
 30
0.0
  0
VERTEX
  5
183
100
AcDbEntity
  8
0
370
              15
390
0
  6
Continuous
 62
               7
100
AcDbVertex
100
AcDb2dVertex
 10
-2738.1897755453274
 20
1153.3350652322267
 30
0.0
  0
VERTEX
  5
184
100
AcDbEntity
  8
0
370
              15
390
0
  6
Continuous
 62
               7
100
AcDbVertex
100
AcDb2dVertex
 10
-2934.1897755453274
 20
1153.3350652322267
 30
0.0
  0
SEQEND
  5
185
100
AcDbEntity
  8
0
370
              15
390
0
  6
Continuous
 62
               7
  0
POLYLINE
  5
187
100
AcDbEntity
  8
0
370
              15
390
0
  6
Continuous
 62
               7
100
AcDb2dPolyline
 66
               1
 10
0.0
 20
0.0
 30
0.0
 70
               1
 75
               5
  0
VERTEX
  5
188
100
AcDbEntity
  8
0
370
              15
390
0
  6
Continuous
 62
               7
100
AcDbVertex
100
AcDb2dVertex
 10
-3333.9338367734854
 20
1216.335065232227
 30
0.0
  0
VERTEX
  5
189
100
AcDbEntity
  8
0
370
              15
390
0
  6
Continuous
 62
               7
100
AcDbVertex
100
AcDb2dVertex
 10
-3123.9338367734854
 20
1216.335065232227
 30
0.0
  0
VERTEX
  5
18A
100
AcDbEntity
  8
0
370
              15
390
0
  6
Continuous
 62
               7
100
AcDbVertex
100
AcDb2dVertex
 10
-3123.9338367734854
 20
1146.3350652322267
 30
0.0
  0
VERTEX
  5
18B
100
AcDbEntity
  8
0
370
              15
390
0
  6
Continuous
 62
               7
100
AcDbVertex
100
AcDb2dVertex
 10
-3333.9338367734854
 20
1146.3350652322267
 30
0.0
  0
SEQEND
  5
18C
100
AcDbEntity
  8
0
370
              15
390
0
  6
Continuous
 62
               7
  0
WIPEOUT
  5
18E
100
AcDbEntity
  8
0
370
              15
390
0
  6
Continuous
 62
               7
 92
        0
100
AcDbWipeout
 90
        0
 10
-3161.9699083670475
 20
1136.2699161159833
 30
0.0
 11
260.0
 21
0.0
 31
0.0
 12
0.0
 22
260.0
 32
0.0
 13
1.0
 23
1.0
340
0
 70
               7
280
               1
281
              50
282
              50
283
               0
360
0
 71
               2
 91
        5
 14
-0.5
 24
0.2884615384615376
 14
0.5
 24
0.2884615384615376
 14
0.5
 24
0.5
 14
-0.5
 24
0.5
 14
-0.5
 24
0.2884615384615376
  0
POLYLINE
  5
18F
100
AcDbEntity
  8
0
370
              15
390
0
  6
Continuous
 62
               7
100
AcDb2dPolyline
 66
               1
 10
0.0
 20
0.0
 30
0.0
 70
               1
 75
               5
  0
VERTEX
  5
190
100
AcDbEntity
  8
0
370
              15
390
0
  6
Continuous
 62
               7
100
AcDbVertex
100
AcDb2dVertex
 10
-3161.9699083670475
 20
1191.2699161159835
 30
0.0
  0
VERTEX
  5
191
100
AcDbEntity
  8
0
370
              15
390
0
  6
Continuous
 62
               7
100
AcDbVertex
100
AcDb2dVertex
 10
-2901.9699083670475
 20
1191.2699161159835
 30
0.0
  0
VERTEX
  5
192
100
AcDbEntity
  8
0
370
              15
390
0
  6
Continuous
 62
               7
100
AcDbVertex
100
AcDb2dVertex
 10
-2901.9699083670475
 20
1136.2699161159833
 30
0.0
  0
VERTEX
  5
193
100
AcDbEntity
  8
0
370
              15
390
0
  6
Continuous
 62
               7
100
AcDbVertex
100
AcDb2dVertex
 10
-3161.9699083670475
 20
1136.2699161159833
 30
0.0
  0
SEQEND
  5
194
100
AcDbEntity
  8
0
370
              15
390
0
  6
Continuous
 62
               7
  0
WIPEOUT
  5
196
100
AcDbEntity
  8
寸法
370
              15
390
0
  6
Continuous
 62
               7
 92
        0
100
AcDbWipeout
 90
        0
 10
-2930.4999914094815
 20
-692.99273193241743
 30
0.0
 11
188.12518006874097
 21
0.0
 31
0.0
 12
0.0
 22
188.12518006874097
 32
0.0
 13
1.0
 23
1.0
340
0
 70
               7
280
               1
281
              50
282
              50
283
               0
360
0
 71
               2
 91
        5
 14
-0.5
 24
0.2501663520915903
 14
0.5
 24
0.2501663520915903
 14
0.5
 24
0.5
 14
-0.5
 24
0.5
 14
-0.5
 24
0.2501663520915903
  0
POLYLINE
  5
197
100
AcDbEntity
  8
寸法
370
              15
390
0
  6
Continuous
 62
               7
100
AcDb2dPolyline
 66
               1
 10
0.0
 20
0.0
 30
0.0
 70
               1
 75
               5
  0
VERTEX
  5
198
100
AcDbEntity
  8
寸法
370
              15
390
0
  6
Continuous
 62
               7
100
AcDbVertex
100
AcDb2dVertex
 10
-2930.4999914094815
 20
-645.99273193241743
 30
0.0
  0
VERTEX
  5
199
100
AcDbEntity
  8
寸法
370
              15
390
0
  6
Continuous
 62
               7
100
AcDbVertex
100
AcDb2dVertex
 10
-2742.3748113407405
 20
-645.99273193241743
 30
0.0
  0
VERTEX
  5
19A
100
AcDbEntity
  8
寸法
370
              15
390
0
  6
Continuous
 62
               7
100
AcDbVertex
100
AcDb2dVertex
 10
-2742.3748113407405
 20
-692.99273193241743
 30
0.0
  0
VERTEX
  5
19B
100
AcDbEntity
  8
寸法
370
              15
390
0
  6
Continuous
 62
               7
100
AcDbVertex
100
AcDb2dVertex
 10
-2930.4999914094815
 20
-692.99273193241743
 30
0.0
  0
SEQEND
  5
19C
100
AcDbEntity
  8
寸法
370
              15
390
0
  6
Continuous
 62
               7
  0
CIRCLE
  5
19E
102
{ACAD_REACTORS
330
19F
102
}
100
AcDbEntity
  8
0
370
               5
390
0
  6
Continuous
 62
               7
100
AcDbCircle
 10
-2170.4999914094815
 20
-893.59914432669484
 30
0.0
 40
14.999999999999805
  0
HATCH
  5
19F
100
AcDbEntity
  8
0
370
               0
390
0
  6
Continuous
 62
               7
100
AcDbHatch
 10
0.0
 20
0.0
 30
0.0
210
0.0
220
0.0
230
1.0
  2
SOLID
 70
               1
 71
               1
 91
        1
 92
        1
 93
        1
 72
               2
 10
-2170.4999914094815
 20
-893.59914432669484
 40
14.999999999999805
 50
0.0
 51
360.0
 73
               0
 97
        1
330
19E
 75
               0
 76
               1
 98
        1
 10
0.0
 20
0.0
  0
WIPEOUT
  5
1A0
100
AcDbEntity
  8
0
370
               5
390
0
  6
Continuous
 62
               7
 92
        0
100
AcDbWipeout
 90
        0
 10
-2187.9999914094815
 20
-884.46782867750289
 30
0.0
 11
34.5
 21
0.0
 31
0.0
 12
0.0
 22
34.5
 32
0.0
 13
1.0
 23
1.0
340
0
 70
               7
280
               1
281
              50
282
              50
283
               0
360
0
 71
               2
 91
        5
 14
-0.5
 24
0.0507246376811594
 14
0.5
 24
0.0507246376811594
 14
0.5
 24
0.5
 14
-0.5
 24
0.5
 14
-0.5
 24
0.0507246376811594
  0
LINE
  5
1A1
100
AcDbEntity
  8
一般
370
              18
390
0
  6
Continuous
 62
               7
100
AcDbLine
 10
905.06927216071551
 20
-634.69149289467941
 30
0.0
 11
905.06927216071551
 21
-729.69149289467941
 31
0.0
  0
LINE
  5
1A2
100
AcDbEntity
  8
一般
370
              18
390
0
  6
Continuous
 62
               7
100
AcDbLine
 10
879.01026846717332
 20
-729.74830756541587
 30
0.0
 11
879.01026846717332
 21
-809.74830756541587
 31
0.0
  0
LINE
  5
1A3
100
AcDbEntity
  8
一般
370
              18
390
0
  6
Continuous
 62
               7
100
AcDbLine
 10
855.88407754587638
 20
-809.83354273502709
 30
0.0
 11
855.88407754587638
 21
-884.83354273502709
 31
0.0
  0
LINE
  5
1A4
100
AcDbEntity
  8
一般
370
              18
390
0
  6
Continuous
 62
               7
100
AcDbLine
 10
855.88407754587638
 20
-884.64452536443287
 30
0.0
 11
383.34220676689097
 21
-884.64452536443287
 31
0.0
  0
LINE
  5
1A5
100
AcDbEntity
  8
一般
370
              18
390
0
  6
Continuous
 62
               7
100
AcDbLine
 10
383.34220676689097
 20
-884.44367028723946
 30
0.0
 11
383.34220676689051
 21
-634.66959197526421
 31
0.0
  0
POLYLINE
  5
1A6
100
AcDbEntity
  8
寸法
370
              15
390
0
  6
Continuous
 62
               7
100
AcDb2dPolyline
 66
               1
 10
0.0
 20
0.0
 30
0.0
 70
               1
 75
               5
  0
VERTEX
  5
1A7
100
AcDbEntity
  8
寸法
370
              15
390
0
  6
Continuous
 62
               7
100
AcDbVertex
100
AcDb2dVertex
 10
827.49936787259196
 20
-905.08554359516393
 30
0.0
  0
VERTEX
  5
1A8
100
AcDbEntity
  8
寸法
370
              15
390
0
  6
Continuous
 62
               7
100
AcDbVertex
100
AcDb2dVertex
 10
857.49936787259207
 20
-905.08554359516393
 30
0.0
  0
VERTEX
  5
1A9
100
AcDbEntity
  8
寸法
370
              15
390
0
  6
Continuous
 62
               7
100
AcDbVertex
100
AcDb2dVertex
 10
857.49936787259207
 20
-908.58554359516393
 30
0.0
  0
VERTEX
  5
1AA
100
AcDbEntity
  8
寸法
370
              15
390
0
  6
Continuous
 62
               7
100
AcDbVertex
100
AcDb2dVertex
 10
827.49936787259196
 20
-908.58554359516393
 30
0.0
  0
SEQEND
  5
1AB
100
AcDbEntity
  8
寸法
370
              15
390
0
  6
Continuous
 62
               7
  0
WIPEOUT
  5
1AD
100
AcDbEntity
  8
寸法
370
              15
390
0
  6
Continuous
 62
               7
 92
        0
100
AcDbWipeout
 90
        0
 10
835.84184663082465
 20
-905.08554359516393
 30
0.0
 11
20.471841620039868
 21
0.0
 31
0.0
 12
0.0
 22
20.471841620039868
 32
0.0
 13
1.0
 23
1.0
340
0
 70
               7
280
               1
281
              50
282
              50
283
               0
360
0
 71
               2
 91
        5
 14
-0.5
 24
-0.5
 14
0.1350185899872491
 24
-0.5
 14
0.1350185899872491
 24
0.5
 14
-0.5
 24
0.5
 14
-0.5
 24
-0.5
  0
POLYLINE
  5
1AE
100
AcDbEntity
  8
寸法
370
              15
390
0
  6
Continuous
 62
               7
100
AcDb2dPolyline
 66
               1
 10
0.0
 20
0.0
 30
0.0
 70
               1
 75
               5
  0
VERTEX
  5
1AF
100
AcDbEntity
  8
寸法
370
              15
390
0
  6
Continuous
 62
               7
100
AcDbVertex
100
AcDb2dVertex
 10
835.84184663082465
 20
-884.61370197512406
 30
0.0
  0
VERTEX
  5
1B0
100
AcDbEntity
  8
寸法
370
              15
390
0
  6
Continuous
 62
               7
100
AcDbVertex
100
AcDb2dVertex
 10
848.84184663082465
 20
-884.61370197512406
 30
0.0
  0
VERTEX
  5
1B1
100
AcDbEntity
  8
寸法
370
              15
390
0
  6
Continuous
 62
               7
100
AcDbVertex
100
AcDb2dVertex
 10
848.84184663082465
 20
-905.08554359516393
 30
0.0
  0
VERTEX
  5
1B2
100
AcDbEntity
  8
寸法
370
              15
390
0
  6
Continuous
 62
               7
100
AcDbVertex
100
AcDb2dVertex
 10
835.84184663082465
 20
-905.08554359516393
 30
0.0
  0
SEQEND
  5
1B3
100
AcDbEntity
  8
寸法
370
              15
390
0
  6
Continuous
 62
               7
  0
LINE
  5
1B5
100
AcDbEntity
  8
一般
370
              18
390
0
  6
Continuous
 62
               7
100
AcDbLine
 10
904.88407754587752
 20
-729.64452536443287
 30
0.0
 11
878.88407754587695
 21
-729.64452536443287
 31
0.0
  0
LINE
  5
1B6
100
AcDbEntity
  8
一般
370
              18
390
0
  6
Continuous
 62
               7
100
AcDbLine
 10
878.88407754587695
 20
-809.64452536443287
 30
0.0
 11
855.88407754587638
 21
-809.64452536443287
 31
0.0
  0
CIRCLE
  5
1B7
102
{ACAD_REACTORS
330
1B8
102
}
100
AcDbEntity
  8
0
370
               5
390
0
  6
Continuous
 62
               7
100
AcDbCircle
 10
448.26748254443226
 20
-893.59914432669484
 30
0.0
 40
14.999999999999707
  0
HATCH
  5
1B8
100
AcDbEntity
  8
0
370
               0
390
0
  6
Continuous
 62
               7
100
AcDbHatch
 10
0.0
 20
0.0
 30
0.0
210
0.0
220
0.0
230
1.0
  2
SOLID
 70
               1
 71
               1
 91
        1
 92
        1
 93
        1
 72
               2
 10
448.26748254443226
 20
-893.59914432669484
 40
14.999999999999707
 50
0.0
 51
360.0
 73
               0
 97
        1
330
1B7
 75
               0
 76
               1
 98
        1
 10
0.0
 20
0.0
  0
WIPEOUT
  5
1B9
100
AcDbEntity
  8
0
370
               5
390
0
  6
Continuous
 62
               7
 92
        0
100
AcDbWipeout
 90
        0
 10
430.76748254443271
 20
-884.46782867750289
 30
0.0
 11
34.500000000000114
 21
0.0
 31
0.0
 12
0.0
 22
34.500000000000114
 32
0.0
 13
1.0
 23
1.0
340
0
 70
               7
280
               1
281
              50
282
              50
283
               0
360
0
 71
               2
 91
        5
 14
-0.5
 24
0.0507246376811609
 14
0.5
 24
0.0507246376811609
 14
0.5
 24
0.5
 14
-0.5
 24
0.5
 14
-0.5
 24
0.0507246376811609
  0
POLYLINE
  5
1BA
100
AcDbEntity
  8
0
370
              15
390
0
  6
Continuous
 62
               7
100
AcDb2dPolyline
 66
               1
 10
0.0
 20
0.0
 30
0.0
 70
               1
 75
               5
  0
VERTEX
  5
1BB
100
AcDbEntity
  8
0
370
              15
390
0
  6
Continuous
 62
               7
100
AcDbVertex
100
AcDb2dVertex
 10
-638.15677615306572
 20
1073.0995636071841
 30
0.0
  0
VERTEX
  5
1BC
100
AcDbEntity
  8
0
370
              15
390
0
  6
Continuous
 62
               7
100
AcDbVertex
100
AcDb2dVertex
 10
-187.89999140948134
 20
1073.0995636071841
 30
0.0
  0
VERTEX
  5
1BD
100
AcDbEntity
  8
0
370
              15
390
0
  6
Continuous
 62
               7
100
AcDbVertex
100
AcDb2dVertex
 10
-187.89999140948134
 20
-535.76010279833008
 30
0.0
  0
VERTEX
  5
1BE
100
AcDbEntity
  8
0
370
              15
390
0
  6
Continuous
 62
               7
100
AcDbVertex
100
AcDb2dVertex
 10
-638.15677615306572
 20
-535.76010279833008
 30
0.0
  0
SEQEND
  5
1BF
100
AcDbEntity
  8
0
370
              15
390
0
  6
Continuous
 62
               7
  0
WIPEOUT
  5
1C1
100
AcDbEntity
  8
一般
370
              18
390
0
  6
Continuous
 62
               7
 92
        0
100
AcDbWipeout
 90
        0
 10
-715.15281432587335
 20
-805.82646560885996
 30
0.0
 11
2029.0
 21
0.0
 31
0.0
 12
0.0
 22
2029.0
 32
0.0
 13
1.0
 23
1.0
340
0
 70
               7
280
               1
281
              50
282
              50
283
               0
360
0
 71
               2
 91
        5
 14
-0.5
 24
-0.5
 14
-0.2028092656481025
 24
-0.5
 14
-0.2028092656481025
 24
0.5
 14
-0.5
 24
0.5
 14
-0.5
 24
-0.5
  0
POLYLINE
  5
1C2
100
AcDbEntity
  8
一般
370
              18
390
0
  6
Continuous
 62
               7
100
AcDb2dPolyline
 66
               1
 10
0.0
 20
0.0
 30
0.0
 70
               1
 75
               5
  0
VERTEX
  5
1C3
100
AcDbEntity
  8
一般
370
              18
390
0
  6
Continuous
 62
               7
100
AcDbVertex
100
AcDb2dVertex
 10
-715.15281432587335
 20
1223.17353439114
 30
0.0
  0
VERTEX
  5
1C4
100
AcDbEntity
  8
一般
370
              18
390
0
  6
Continuous
 62
               7
100
AcDbVertex
100
AcDb2dVertex
 10
-112.15281432587335
 20
1223.17353439114
 30
0.0
  0
VERTEX
  5
1C5
100
AcDbEntity
  8
一般
370
              18
390
0
  6
Continuous
 62
               7
100
AcDbVertex
100
AcDb2dVertex
 10
-112.15281432587335
 20
-805.82646560885996
 30
0.0
  0
VERTEX
  5
1C6
100
AcDbEntity
  8
一般
370
              18
390
0
  6
Continuous
 62
               7
100
AcDbVertex
100
AcDb2dVertex
 10
-715.15281432587335
 20
-805.82646560885996
 30
0.0
  0
SEQEND
  5
1C7
100
AcDbEntity
  8
一般
370
              18
390
0
  6
Continuous
 62
               7
  0
POLYLINE
  5
1C9
100
AcDbEntity
  8
一般
370
              18
390
0
  6
Continuous
 62
               7
100
AcDb2dPolyline
 66
               1
 10
0.0
 20
0.0
 30
0.0
 70
               1
 75
               5
  0
VERTEX
  5
1CA
100
AcDbEntity
  8
一般
370
              18
390
0
  6
Continuous
 62
               7
100
AcDbVertex
100
AcDb2dVertex
 10
-640.15281432587335
 20
1074.17353439114
 30
0.0
  0
VERTEX
  5
1CB
100
AcDbEntity
  8
一般
370
              18
390
0
  6
Continuous
 62
               7
100
AcDbVertex
100
AcDb2dVertex
 10
-187.15281432587335
 20
1074.17353439114
 30
0.0
  0
VERTEX
  5
1CC
100
AcDbEntity
  8
一般
370
              18
390
0
  6
Continuous
 62
               7
100
AcDbVertex
100
AcDb2dVertex
 10
-187.15281432587335
 20
-548.82646560885996
 30
0.0
  0
VERTEX
  5
1CD
100
AcDbEntity
  8
一般
370
              18
390
0
  6
Continuous
 62
               7
100
AcDbVertex
100
AcDb2dVertex
 10
-640.15281432587335
 20
-548.82646560885996
 30
0.0
  0
SEQEND
  5
1CE
100
AcDbEntity
  8
一般
370
              18
390
0
  6
Continuous
 62
               7
  0
POLYLINE
  5
1D0
100
AcDbEntity
  8
一般
370
              18
390
0
  6
Continuous
 62
               7
100
AcDb2dPolyline
 66
               1
 10
0.0
 20
0.0
 30
0.0
 70
               1
 75
               5
  0
VERTEX
  5
1D1
100
AcDbEntity
  8
一般
370
              18
390
0
  6
Continuous
 62
               7
100
AcDbVertex
100
AcDb2dVertex
 10
-3269.2817956814515
 20
1084.17353439114
 30
0.0
  0
VERTEX
  5
1D2
100
AcDbEntity
  8
一般
370
              18
390
0
  6
Continuous
 62
               7
100
AcDbVertex
100
AcDb2dVertex
 10
-2796.2817956814515
 20
1084.17353439114
 30
0.0
  0
VERTEX
  5
1D3
100
AcDbEntity
  8
一般
370
              18
390
0
  6
Continuous
 62
               7
100
AcDbVertex
100
AcDb2dVertex
 10
-2796.2817956814515
 20
-558.82646560885996
 30
0.0
  0
VERTEX
  5
1D4
100
AcDbEntity
  8
一般
370
              18
390
0
  6
Continuous
 62
               7
100
AcDbVertex
100
AcDb2dVertex
 10
-3269.2817956814515
 20
-558.82646560885996
 30
0.0
  0
SEQEND
  5
1D5
100
AcDbEntity
  8
一般
370
              18
390
0
  6
Continuous
 62
               7
  0
POLYLINE
  5
1D7
100
AcDbEntity
  8
0
370
              15
390
0
  6
Continuous
 62
               7
100
AcDb2dPolyline
 66
               1
 10
0.0
 20
0.0
 30
0.0
 70
               1
 75
               5
  0
VERTEX
  5
1D8
100
AcDbEntity
  8
0
370
              15
390
0
  6
Continuous
 62
               7
100
AcDbVertex
100
AcDb2dVertex
 10
-667.42401638527758
 20
818.79134886385054
 30
0.0
  0
VERTEX
  5
1D9
100
AcDbEntity
  8
0
370
              15
390
0
  6
Continuous
 62
               7
100
AcDbVertex
100
AcDb2dVertex
 10
-653.42400638527761
 20
818.79134886385054
 30
0.0
  0
VERTEX
  5
1DA
100
AcDbEntity
  8
0
370
              15
390
0
  6
Continuous
 62
               7
100
AcDbVertex
100
AcDb2dVertex
 10
-653.42400638527761
 20
795.79034886385034
 30
0.0
  0
VERTEX
  5
1DB
100
AcDbEntity
  8
0
370
              15
390
0
  6
Continuous
 62
               7
100
AcDbVertex
100
AcDb2dVertex
 10
-667.42401638527758
 20
795.79034886385034
 30
0.0
  0
SEQEND
  5
1DC
100
AcDbEntity
  8
0
370
              15
390
0
  6
Continuous
 62
               7
  0
POLYLINE
  5
1DE
100
AcDbEntity
  8
0
370
              15
390
0
  6
Continuous
 62
               7
100
AcDb2dPolyline
 66
               1
 10
0.0
 20
0.0
 30
0.0
 70
               1
 75
               5
  0
VERTEX
  5
1DF
100
AcDbEntity
  8
0
370
              15
390
0
  6
Continuous
 62
               7
100
AcDbVertex
100
AcDb2dVertex
 10
-666.42539487586146
 20
795.79110119090637
 30
0.0
  0
VERTEX
  5
1E0
100
AcDbEntity
  8
0
370
              15
390
0
  6
Continuous
 62
               7
100
AcDbVertex
100
AcDb2dVertex
 10
-654.43539487586145
 20
795.79110119090637
 30
0.0
  0
VERTEX
  5
1E1
100
AcDbEntity
  8
0
370
              15
390
0
  6
Continuous
 62
               7
100
AcDbVertex
100
AcDb2dVertex
 10
-654.43539487586145
 20
794.79110119090637
 30
0.0
  0
VERTEX
  5
1E2
100
AcDbEntity
  8
0
370
              15
390
0
  6
Continuous
 62
               7
100
AcDbVertex
100
AcDb2dVertex
 10
-666.42539487586146
 20
794.79110119090637
 30
0.0
  0
SEQEND
  5
1E3
100
AcDbEntity
  8
0
370
              15
390
0
  6
Continuous
 62
               7
  0
POLYLINE
  5
1E5
100
AcDbEntity
  8
0
370
              15
390
0
  6
Continuous
 62
               7
100
AcDb2dPolyline
 66
               1
 10
0.0
 20
0.0
 30
0.0
 70
               1
 75
               5
  0
VERTEX
  5
1E6
100
AcDbEntity
  8
0
370
              15
390
0
  6
Continuous
 62
               7
100
AcDbVertex
100
AcDb2dVertex
 10
-667.42401638527758
 20
794.7913488638527
 30
0.0
  0
VERTEX
  5
1E7
100
AcDbEntity
  8
0
370
              15
390
0
  6
Continuous
 62
               7
100
AcDbVertex
100
AcDb2dVertex
 10
-653.42400638527761
 20
794.7913488638527
 30
0.0
  0
VERTEX
  5
1E8
100
AcDbEntity
  8
0
370
              15
390
0
  6
Continuous
 62
               7
100
AcDbVertex
100
AcDb2dVertex
 10
-653.42400638527761
 20
225.7913488638527
 30
0.0
  0
VERTEX
  5
1E9
100
AcDbEntity
  8
0
370
              15
390
0
  6
Continuous
 62
               7
100
AcDbVertex
100
AcDb2dVertex
 10
-667.42401638527758
 20
225.7913488638527
 30
0.0
  0
SEQEND
  5
1EA
100
AcDbEntity
  8
0
370
              15
390
0
  6
Continuous
 62
               7
  0
POLYLINE
  5
1EC
100
AcDbEntity
  8
0
370
              15
390
0
  6
Continuous
 62
               7
100
AcDb2dPolyline
 66
               1
 10
0.0
 20
0.0
 30
0.0
 70
               1
 75
               5
  0
VERTEX
  5
1ED
100
AcDbEntity
  8
0
370
              15
390
0
  6
Continuous
 62
               7
100
AcDbVertex
100
AcDb2dVertex
 10
-667.42401638527758
 20
224.7913488638527
 30
0.0
  0
VERTEX
  5
1EE
100
AcDbEntity
  8
0
370
              15
390
0
  6
Continuous
 62
               7
100
AcDbVertex
100
AcDb2dVertex
 10
-653.42400638527761
 20
224.7913488638527
 30
0.0
  0
VERTEX
  5
1EF
100
AcDbEntity
  8
0
370
              15
390
0
  6
Continuous
 62
               7
100
AcDbVertex
100
AcDb2dVertex
 10
-653.42400638527761
 20
201.7913488638527
 30
0.0
  0
VERTEX
  5
1F0
100
AcDbEntity
  8
0
370
              15
390
0
  6
Continuous
 62
               7
100
AcDbVertex
100
AcDb2dVertex
 10
-667.42401638527758
 20
201.7913488638527
 30
0.0
  0
SEQEND
  5
1F1
100
AcDbEntity
  8
0
370
              15
390
0
  6
Continuous
 62
               7
  0
POLYLINE
  5
1F3
100
AcDbEntity
  8
0
370
              15
390
0
  6
Continuous
 62
               7
100
AcDb2dPolyline
 66
               1
 10
0.0
 20
0.0
 30
0.0
 70
               1
 75
               5
  0
VERTEX
  5
1F4
100
AcDbEntity
  8
0
370
              15
390
0
  6
Continuous
 62
               7
100
AcDbVertex
100
AcDb2dVertex
 10
-667.42401638527758
 20
200.79134886384725
 30
0.0
  0
VERTEX
  5
1F5
100
AcDbEntity
  8
0
370
              15
390
0
  6
Continuous
 62
               7
100
AcDbVertex
100
AcDb2dVertex
 10
-653.42400638527761
 20
200.79134886384725
 30
0.0
  0
VERTEX
  5
1F6
100
AcDbEntity
  8
0
370
              15
390
0
  6
Continuous
 62
               7
100
AcDbVertex
100
AcDb2dVertex
 10
-653.42400638527761
 20
-368.20865113615275
 30
0.0
  0
VERTEX
  5
1F7
100
AcDbEntity
  8
0
370
              15
390
0
  6
Continuous
 62
               7
100
AcDbVertex
100
AcDb2dVertex
 10
-667.42401638527758
 20
-368.20865113615275
 30
0.0
  0
SEQEND
  5
1F8
100
AcDbEntity
  8
0
370
              15
390
0
  6
Continuous
 62
               7
  0
POLYLINE
  5
1FA
100
AcDbEntity
  8
0
370
              15
390
0
  6
Continuous
 62
               7
100
AcDb2dPolyline
 66
               1
 10
0.0
 20
0.0
 30
0.0
 70
               1
 75
               5
  0
VERTEX
  5
1FB
100
AcDbEntity
  8
0
370
              15
390
0
  6
Continuous
 62
               7
100
AcDbVertex
100
AcDb2dVertex
 10
-667.42401638527758
 20
-369.20865113615275
 30
0.0
  0
VERTEX
  5
1FC
100
AcDbEntity
  8
0
370
              15
390
0
  6
Continuous
 62
               7
100
AcDbVertex
100
AcDb2dVertex
 10
-653.42400638527761
 20
-369.20865113615275
 30
0.0
  0
VERTEX
  5
1FD
100
AcDbEntity
  8
0
370
              15
390
0
  6
Continuous
 62
               7
100
AcDbVertex
100
AcDb2dVertex
 10
-653.42400638527761
 20
-392.20865113615275
 30
0.0
  0
VERTEX
  5
1FE
100
AcDbEntity
  8
0
370
              15
390
0
  6
Continuous
 62
               7
100
AcDbVertex
100
AcDb2dVertex
 10
-667.42401638527758
 20
-392.20865113615275
 30
0.0
  0
SEQEND
  5
1FF
100
AcDbEntity
  8
0
370
              15
390
0
  6
Continuous
 62
               7
  0
POLYLINE
  5
201
100
AcDbEntity
  8
0
370
              15
390
0
  6
Continuous
 62
               7
100
AcDb2dPolyline
 66
               1
 10
0.0
 20
0.0
 30
0.0
 70
               1
 75
               5
  0
VERTEX
  5
202
100
AcDbEntity
  8
0
370
              15
390
0
  6
Continuous
 62
               7
100
AcDbVertex
100
AcDb2dVertex
 10
-666.42539487586146
 20
225.79110119090853
 30
0.0
  0
VERTEX
  5
203
100
AcDbEntity
  8
0
370
              15
390
0
  6
Continuous
 62
               7
100
AcDbVertex
100
AcDb2dVertex
 10
-654.43539487586145
 20
225.79110119090853
 30
0.0
  0
VERTEX
  5
204
100
AcDbEntity
  8
0
370
              15
390
0
  6
Continuous
 62
               7
100
AcDbVertex
100
AcDb2dVertex
 10
-654.43539487586145
 20
224.79110119090853
 30
0.0
  0
VERTEX
  5
205
100
AcDbEntity
  8
0
370
              15
390
0
  6
Continuous
 62
               7
100
AcDbVertex
100
AcDb2dVertex
 10
-666.42539487586146
 20
224.79110119090853
 30
0.0
  0
SEQEND
  5
206
100
AcDbEntity
  8
0
370
              15
390
0
  6
Continuous
 62
               7
  0
POLYLINE
  5
208
100
AcDbEntity
  8
0
370
              15
390
0
  6
Continuous
 62
               7
100
AcDb2dPolyline
 66
               1
 10
0.0
 20
0.0
 30
0.0
 70
               1
 75
               5
  0
VERTEX
  5
209
100
AcDbEntity
  8
0
370
              15
390
0
  6
Continuous
 62
               7
100
AcDbVertex
100
AcDb2dVertex
 10
-666.42539487586146
 20
201.79110119090853
 30
0.0
  0
VERTEX
  5
20A
100
AcDbEntity
  8
0
370
              15
390
0
  6
Continuous
 62
               7
100
AcDbVertex
100
AcDb2dVertex
 10
-654.43539487586145
 20
201.79110119090853
 30
0.0
  0
VERTEX
  5
20B
100
AcDbEntity
  8
0
370
              15
390
0
  6
Continuous
 62
               7
100
AcDbVertex
100
AcDb2dVertex
 10
-654.43539487586145
 20
200.79110119090853
 30
0.0
  0
VERTEX
  5
20C
100
AcDbEntity
  8
0
370
              15
390
0
  6
Continuous
 62
               7
100
AcDbVertex
100
AcDb2dVertex
 10
-666.42539487586146
 20
200.79110119090853
 30
0.0
  0
SEQEND
  5
20D
100
AcDbEntity
  8
0
370
              15
390
0
  6
Continuous
 62
               7
  0
POLYLINE
  5
20F
100
AcDbEntity
  8
0
370
              15
390
0
  6
Continuous
 62
               7
100
AcDb2dPolyline
 66
               1
 10
0.0
 20
0.0
 30
0.0
 70
               1
 75
               5
  0
VERTEX
  5
210
100
AcDbEntity
  8
0
370
              15
390
0
  6
Continuous
 62
               7
100
AcDbVertex
100
AcDb2dVertex
 10
-666.42539487586146
 20
-368.20889880909692
 30
0.0
  0
VERTEX
  5
211
100
AcDbEntity
  8
0
370
              15
390
0
  6
Continuous
 62
               7
100
AcDbVertex
100
AcDb2dVertex
 10
-654.43539487586145
 20
-368.20889880909692
 30
0.0
  0
VERTEX
  5
212
100
AcDbEntity
  8
0
370
              15
390
0
  6
Continuous
 62
               7
100
AcDbVertex
100
AcDb2dVertex
 10
-654.43539487586145
 20
-369.20889880909692
 30
0.0
  0
VERTEX
  5
213
100
AcDbEntity
  8
0
370
              15
390
0
  6
Continuous
 62
               7
100
AcDbVertex
100
AcDb2dVertex
 10
-666.42539487586146
 20
-369.20889880909692
 30
0.0
  0
SEQEND
  5
214
100
AcDbEntity
  8
0
370
              15
390
0
  6
Continuous
 62
               7
  0
POLYLINE
  5
216
100
AcDbEntity
  8
0
370
              15
390
0
  6
Continuous
 62
               7
100
AcDb2dPolyline
 66
               1
 10
0.0
 20
0.0
 30
0.0
 70
               1
 75
               5
  0
VERTEX
  5
217
100
AcDbEntity
  8
0
370
              15
390
0
  6
Continuous
 62
               7
100
AcDbVertex
100
AcDb2dVertex
 10
1015.1410905991892
 20
203.6648273398381
 30
0.0
  0
VERTEX
  5
218
100
AcDbEntity
  8
0
370
              15
390
0
  6
Continuous
 62
               7
100
AcDbVertex
100
AcDb2dVertex
 10
1029.1411005991918
 20
203.6648273398381
 30
0.0
  0
VERTEX
  5
219
100
AcDbEntity
  8
0
370
              15
390
0
  6
Continuous
 62
               7
100
AcDbVertex
100
AcDb2dVertex
 10
1029.1411005991918
 20
-365.3351726601619
 30
0.0
  0
VERTEX
  5
21A
100
AcDbEntity
  8
0
370
              15
390
0
  6
Continuous
 62
               7
100
AcDbVertex
100
AcDb2dVertex
 10
1015.1410905991892
 20
-365.3351726601619
 30
0.0
  0
SEQEND
  5
21B
100
AcDbEntity
  8
0
370
              15
390
0
  6
Continuous
 62
               7
  0
POLYLINE
  5
21D
100
AcDbEntity
  8
0
370
              15
390
0
  6
Continuous
 62
               7
100
AcDb2dPolyline
 66
               1
 10
0.0
 20
0.0
 30
0.0
 70
               1
 75
               5
  0
VERTEX
  5
21E
100
AcDbEntity
  8
0
370
              15
390
0
  6
Continuous
 62
               7
100
AcDbVertex
100
AcDb2dVertex
 10
1016.1397121086055
 20
204.66457966689393
 30
0.0
  0
VERTEX
  5
21F
100
AcDbEntity
  8
0
370
              15
390
0
  6
Continuous
 62
               7
100
AcDbVertex
100
AcDb2dVertex
 10
1028.1297121086077
 20
204.66457966689393
 30
0.0
  0
VERTEX
  5
220
100
AcDbEntity
  8
0
370
              15
390
0
  6
Continuous
 62
               7
100
AcDbVertex
100
AcDb2dVertex
 10
1028.1297121086077
 20
203.66457966689393
 30
0.0
  0
VERTEX
  5
221
100
AcDbEntity
  8
0
370
              15
390
0
  6
Continuous
 62
               7
100
AcDbVertex
100
AcDb2dVertex
 10
1016.1397121086055
 20
203.66457966689393
 30
0.0
  0
SEQEND
  5
222
100
AcDbEntity
  8
0
370
              15
390
0
  6
Continuous
 62
               7
  0
POLYLINE
  5
224
100
AcDbEntity
  8
0
370
              15
390
0
  6
Continuous
 62
               7
100
AcDb2dPolyline
 66
               1
 10
0.0
 20
0.0
 30
0.0
 70
               1
 75
               5
  0
VERTEX
  5
225
100
AcDbEntity
  8
0
370
              15
390
0
  6
Continuous
 62
               7
100
AcDbVertex
100
AcDb2dVertex
 10
1016.1397121086055
 20
-365.33542033310607
 30
0.0
  0
VERTEX
  5
226
100
AcDbEntity
  8
0
370
              15
390
0
  6
Continuous
 62
               7
100
AcDbVertex
100
AcDb2dVertex
 10
1028.1297121086077
 20
-365.33542033310607
 30
0.0
  0
VERTEX
  5
227
100
AcDbEntity
  8
0
370
              15
390
0
  6
Continuous
 62
               7
100
AcDbVertex
100
AcDb2dVertex
 10
1028.1297121086077
 20
-366.33542033310607
 30
0.0
  0
VERTEX
  5
228
100
AcDbEntity
  8
0
370
              15
390
0
  6
Continuous
 62
               7
100
AcDbVertex
100
AcDb2dVertex
 10
1016.1397121086055
 20
-366.33542033310607
 30
0.0
  0
SEQEND
  5
229
100
AcDbEntity
  8
0
370
              15
390
0
  6
Continuous
 62
               7
  0
POLYLINE
  5
22B
100
AcDbEntity
  8
0
370
              15
390
0
  6
Continuous
 62
               7
100
AcDb2dPolyline
 66
               1
 10
0.0
 20
0.0
 30
0.0
 70
               1
 75
               5
  0
VERTEX
  5
22C
100
AcDbEntity
  8
0
370
              15
390
0
  6
Continuous
 62
               7
100
AcDbVertex
100
AcDb2dVertex
 10
1015.1410905991892
 20
797.56326877183017
 30
0.0
  0
VERTEX
  5
22D
100
AcDbEntity
  8
0
370
              15
390
0
  6
Continuous
 62
               7
100
AcDbVertex
100
AcDb2dVertex
 10
1029.1411005991918
 20
797.56326877183017
 30
0.0
  0
VERTEX
  5
22E
100
AcDbEntity
  8
0
370
              15
390
0
  6
Continuous
 62
               7
100
AcDbVertex
100
AcDb2dVertex
 10
1029.1411005991918
 20
228.56326877183017
 30
0.0
  0
VERTEX
  5
22F
100
AcDbEntity
  8
0
370
              15
390
0
  6
Continuous
 62
               7
100
AcDbVertex
100
AcDb2dVertex
 10
1015.1410905991892
 20
228.56326877183017
 30
0.0
  0
SEQEND
  5
230
100
AcDbEntity
  8
0
370
              15
390
0
  6
Continuous
 62
               7
  0
POLYLINE
  5
232
100
AcDbEntity
  8
0
370
              15
390
0
  6
Continuous
 62
               7
100
AcDb2dPolyline
 66
               1
 10
0.0
 20
0.0
 30
0.0
 70
               1
 75
               5
  0
VERTEX
  5
233
100
AcDbEntity
  8
0
370
              15
390
0
  6
Continuous
 62
               7
100
AcDbVertex
100
AcDb2dVertex
 10
1016.1397121086055
 20
798.56302109892067
 30
0.0
  0
VERTEX
  5
234
100
AcDbEntity
  8
0
370
              15
390
0
  6
Continuous
 62
               7
100
AcDbVertex
100
AcDb2dVertex
 10
1028.1297121086077
 20
798.56302109892067
 30
0.0
  0
VERTEX
  5
235
100
AcDbEntity
  8
0
370
              15
390
0
  6
Continuous
 62
               7
100
AcDbVertex
100
AcDb2dVertex
 10
1028.1297121086077
 20
797.56302109892067
 30
0.0
  0
VERTEX
  5
236
100
AcDbEntity
  8
0
370
              15
390
0
  6
Continuous
 62
               7
100
AcDbVertex
100
AcDb2dVertex
 10
1016.1397121086055
 20
797.56302109892067
 30
0.0
  0
SEQEND
  5
237
100
AcDbEntity
  8
0
370
              15
390
0
  6
Continuous
 62
               7
  0
POLYLINE
  5
239
100
AcDbEntity
  8
0
370
              15
390
0
  6
Continuous
 62
               7
100
AcDb2dPolyline
 66
               1
 10
0.0
 20
0.0
 30
0.0
 70
               1
 75
               5
  0
VERTEX
  5
23A
100
AcDbEntity
  8
0
370
              15
390
0
  6
Continuous
 62
               7
100
AcDbVertex
100
AcDb2dVertex
 10
1016.1397121086055
 20
228.563021098886
 30
0.0
  0
VERTEX
  5
23B
100
AcDbEntity
  8
0
370
              15
390
0
  6
Continuous
 62
               7
100
AcDbVertex
100
AcDb2dVertex
 10
1028.1297121086077
 20
228.563021098886
 30
0.0
  0
VERTEX
  5
23C
100
AcDbEntity
  8
0
370
              15
390
0
  6
Continuous
 62
               7
100
AcDbVertex
100
AcDb2dVertex
 10
1028.1297121086077
 20
227.563021098886
 30
0.0
  0
VERTEX
  5
23D
100
AcDbEntity
  8
0
370
              15
390
0
  6
Continuous
 62
               7
100
AcDbVertex
100
AcDb2dVertex
 10
1016.1397121086055
 20
227.563021098886
 30
0.0
  0
SEQEND
  5
23E
100
AcDbEntity
  8
0
370
              15
390
0
  6
Continuous
 62
               7
  0
POLYLINE
  5
240
100
AcDbEntity
  8
0
370
              15
390
0
  6
Continuous
 62
               7
100
AcDb2dPolyline
 66
               1
 10
0.0
 20
0.0
 30
0.0
 70
               1
 75
               5
  0
VERTEX
  5
241
100
AcDbEntity
  8
0
370
              15
390
0
  6
Continuous
 62
               7
100
AcDbVertex
100
AcDb2dVertex
 10
980.17239171997915
 20
-366.38521246043695
 30
0.0
  0
VERTEX
  5
242
100
AcDbEntity
  8
0
370
              15
390
0
  6
Continuous
 62
               7
100
AcDbVertex
100
AcDb2dVertex
 10
1029.1723917199888
 20
-366.38521246043695
 30
0.0
  0
VERTEX
  5
243
100
AcDbEntity
  8
0
370
              15
390
0
  6
Continuous
 62
               7
100
AcDbVertex
100
AcDb2dVertex
 10
1029.1723917199888
 20
-389.38521246043695
 30
0.0
  0
VERTEX
  5
244
100
AcDbEntity
  8
0
370
              15
390
0
  6
Continuous
 62
               7
100
AcDbVertex
100
AcDb2dVertex
 10
980.17239171997915
 20
-389.38521246043695
 30
0.0
  0
SEQEND
  5
245
100
AcDbEntity
  8
0
370
              15
390
0
  6
Continuous
 62
               7
  0
POLYLINE
  5
247
100
AcDbEntity
  8
0
370
              15
390
0
  6
Continuous
 62
               7
100
AcDb2dPolyline
 66
               1
 10
0.0
 20
0.0
 30
0.0
 70
               1
 75
               5
  0
VERTEX
  5
248
100
AcDbEntity
  8
0
370
              15
390
0
  6
Continuous
 62
               7
100
AcDbVertex
100
AcDb2dVertex
 10
1022.2428330262688
 20
-366.38521246043695
 30
0.0
  0
VERTEX
  5
249
100
AcDbEntity
  8
0
370
              15
390
0
  6
Continuous
 62
               7
100
AcDbVertex
100
AcDb2dVertex
 10
1029.1723917199888
 20
-366.38521246043695
 30
0.0
  0
VERTEX
  5
24A
100
AcDbEntity
  8
0
370
              15
390
0
  6
Continuous
 62
               7
100
AcDbVertex
100
AcDb2dVertex
 10
1029.1723917199888
 20
-389.38521246043695
 30
0.0
  0
VERTEX
  5
24B
100
AcDbEntity
  8
0
370
              15
390
0
  6
Continuous
 62
               7
100
AcDbVertex
100
AcDb2dVertex
 10
1022.2428330262688
 20
-389.38521246043695
 30
0.0
  0
SEQEND
  5
24C
100
AcDbEntity
  8
0
370
              15
390
0
  6
Continuous
 62
               7
  0
POLYLINE
  5
24E
100
AcDbEntity
  8
0
370
              15
390
0
  6
Continuous
 62
               7
100
AcDb2dPolyline
 66
               1
 10
0.0
 20
0.0
 30
0.0
 70
               1
 75
               5
  0
VERTEX
  5
24F
100
AcDbEntity
  8
0
370
              15
390
0
  6
Continuous
 62
               7
100
AcDbVertex
100
AcDb2dVertex
 10
980.17239171997915
 20
227.64596628600827
 30
0.0
  0
VERTEX
  5
250
100
AcDbEntity
  8
0
370
              15
390
0
  6
Continuous
 62
               7
100
AcDbVertex
100
AcDb2dVertex
 10
1029.1723917199888
 20
227.64596628600827
 30
0.0
  0
VERTEX
  5
251
100
AcDbEntity
  8
0
370
              15
390
0
  6
Continuous
 62
               7
100
AcDbVertex
100
AcDb2dVertex
 10
1029.1723917199888
 20
204.64596628600827
 30
0.0
  0
VERTEX
  5
252
100
AcDbEntity
  8
0
370
              15
390
0
  6
Continuous
 62
               7
100
AcDbVertex
100
AcDb2dVertex
 10
980.17239171997915
 20
204.64596628600827
 30
0.0
  0
SEQEND
  5
253
100
AcDbEntity
  8
0
370
              15
390
0
  6
Continuous
 62
               7
  0
POLYLINE
  5
255
100
AcDbEntity
  8
0
370
              15
390
0
  6
Continuous
 62
               7
100
AcDb2dPolyline
 66
               1
 10
0.0
 20
0.0
 30
0.0
 70
               1
 75
               5
  0
VERTEX
  5
256
100
AcDbEntity
  8
0
370
              15
390
0
  6
Continuous
 62
               7
100
AcDbVertex
100
AcDb2dVertex
 10
1022.2428330262688
 20
227.64596628600827
 30
0.0
  0
VERTEX
  5
257
100
AcDbEntity
  8
0
370
              15
390
0
  6
Continuous
 62
               7
100
AcDbVertex
100
AcDb2dVertex
 10
1029.1723917199888
 20
227.64596628600827
 30
0.0
  0
VERTEX
  5
258
100
AcDbEntity
  8
0
370
              15
390
0
  6
Continuous
 62
               7
100
AcDbVertex
100
AcDb2dVertex
 10
1029.1723917199888
 20
204.64596628600827
 30
0.0
  0
VERTEX
  5
259
100
AcDbEntity
  8
0
370
              15
390
0
  6
Continuous
 62
               7
100
AcDbVertex
100
AcDb2dVertex
 10
1022.2428330262688
 20
204.64596628600827
 30
0.0
  0
SEQEND
  5
25A
100
AcDbEntity
  8
0
370
              15
390
0
  6
Continuous
 62
               7
  0
POLYLINE
  5
25C
100
AcDbEntity
  8
0
370
              15
390
0
  6
Continuous
 62
               7
100
AcDb2dPolyline
 66
               1
 10
0.0
 20
0.0
 30
0.0
 70
               1
 75
               5
  0
VERTEX
  5
25D
100
AcDbEntity
  8
0
370
              15
390
0
  6
Continuous
 62
               7
100
AcDbVertex
100
AcDb2dVertex
 10
980.17239171997915
 20
821.5845233101777
 30
0.0
  0
VERTEX
  5
25E
100
AcDbEntity
  8
0
370
              15
390
0
  6
Continuous
 62
               7
100
AcDbVertex
100
AcDb2dVertex
 10
1029.1723917199888
 20
821.5845233101777
 30
0.0
  0
VERTEX
  5
25F
100
AcDbEntity
  8
0
370
              15
390
0
  6
Continuous
 62
               7
100
AcDbVertex
100
AcDb2dVertex
 10
1029.1723917199888
 20
798.5845233101777
 30
0.0
  0
VERTEX
  5
260
100
AcDbEntity
  8
0
370
              15
390
0
  6
Continuous
 62
               7
100
AcDbVertex
100
AcDb2dVertex
 10
980.17239171997915
 20
798.5845233101777
 30
0.0
  0
SEQEND
  5
261
100
AcDbEntity
  8
0
370
              15
390
0
  6
Continuous
 62
               7
  0
POLYLINE
  5
263
100
AcDbEntity
  8
0
370
              15
390
0
  6
Continuous
 62
               7
100
AcDb2dPolyline
 66
               1
 10
0.0
 20
0.0
 30
0.0
 70
               1
 75
               5
  0
VERTEX
  5
264
100
AcDbEntity
  8
0
370
              15
390
0
  6
Continuous
 62
               7
100
AcDbVertex
100
AcDb2dVertex
 10
1022.2428330262688
 20
821.5845233101777
 30
0.0
  0
VERTEX
  5
265
100
AcDbEntity
  8
0
370
              15
390
0
  6
Continuous
 62
               7
100
AcDbVertex
100
AcDb2dVertex
 10
1029.1723917199888
 20
821.5845233101777
 30
0.0
  0
VERTEX
  5
266
100
AcDbEntity
  8
0
370
              15
390
0
  6
Continuous
 62
               7
100
AcDbVertex
100
AcDb2dVertex
 10
1029.1723917199888
 20
798.5845233101777
 30
0.0
  0
VERTEX
  5
267
100
AcDbEntity
  8
0
370
              15
390
0
  6
Continuous
 62
               7
100
AcDbVertex
100
AcDb2dVertex
 10
1022.2428330262688
 20
798.5845233101777
 30
0.0
  0
SEQEND
  5
268
100
AcDbEntity
  8
0
370
              15
390
0
  6
Continuous
 62
               7
  0
ENDSEC
  0
SECTION
  2
OBJECTS
  0
DICTIONARY
  5
19
100
AcDbDictionary
280
               0
281
               1
  3
ACAD_GROUP
350
1A
  3
ACAD_MLINESTYLE
350
1B
  3
ACAD_LAYOUT
350
1E
  3
ACAD_PLOTSETTINGS
350
22
  3
ACAD_PLOTSTYLENAME
350
1F
  3
ACAD_WIPEOUT_VARS
350
23
  0
DICTIONARY
  5
1A
102
{ACAD_REACTORS
330
19
102
}
100
AcDbDictionary
280
               0
281
               1
  0
DICTIONARY
  5
1B
102
{ACAD_REACTORS
330
19
102
}
100
AcDbDictionary
280
               0
281
               1
  3
Standard
350
1C
  0
MLINESTYLE
  5
1C
102
{ACAD_REACTORS
330
1B
102
}
100
AcDbMlineStyle
  2
Standard
 70
               0
  3

 62
               0
 51
90.0
 52
90.0
 71
               2
 49
0.5
 62
             256
  6
ByLayer
 49
-0.5
 62
             256
  6
ByLayer
  0
ACDBDICTIONARYWDFLT
  5
1F
102
{ACAD_REACTORS
330
19
102
}
100
AcDbDictionary
281
               1
  3
Normal
350
1D
100
AcDbDictionaryWithDefault
340
1D
  0
ACDBPLACEHOLDER
  5
1D
102
{ACAD_REACTORS
330
1F
102
}
  0
LAYOUT
  5
20
102
{ACAD_REACTORS
330
1E
102
}
100
AcDbPlotSettings
  1

  2

  4

  6

 40
0.0
 41
0.0
 42
0.0
 43
0.0
 44
0.0
 45
0.0
 46
0.0
 47
0.0
 48
0.0
 49
0.0
140
0.0
141
0.0
142
1.0
143
1.0
 70
            1024
 72
               0
 73
               0
 74
               0
  7

 75
               0
147
1.0
148
0.0
149
0.0
100
AcDbLayout
  1
Model
 70
               0
 71
               0
 10
0.0
 20
0.0
 11
0.0
 21
0.0
 12
0.0
 22
0.0
 32
0.0
 14
0.0
 24
0.0
 34
0.0
 15
0.0
 25
0.0
 35
0.0
146
0.0
 13
0.0
 23
0.0
 33
0.0
 16
0.0
 26
0.0
 36
0.0
 17
0.0
 27
0.0
 37
0.0
 76
               0
330
A
331
0
345
0
346
0
  0
LAYOUT
  5
21
102
{ACAD_REACTORS
330
1E
102
}
100
AcDbPlotSettings
  1

  2

  4

  6

 40
0.0
 41
0.0
 42
0.0
 43
0.0
 44
0.0
 45
0.0
 46
0.0
 47
0.0
 48
0.0
 49
0.0
140
0.0
141
0.0
142
1.0
143
1.0
 70
               0
 72
               0
 73
               0
 74
               0
  7

 75
               0
147
1.0
148
0.0
149
0.0
100
AcDbLayout
  1
Layout1
 70
               0
 71
               0
 10
0.0
 20
0.0
 11
0.0
 21
0.0
 12
0.0
 22
0.0
 32
0.0
 14
0.0
 24
0.0
 34
0.0
 15
0.0
 25
0.0
 35
0.0
146
0.0
 13
0.0
 23
0.0
 33
0.0
 16
0.0
 26
0.0
 36
0.0
 17
0.0
 27
0.0
 37
0.0
 76
               0
330
B
331
0
345
0
346
0
  0
DICTIONARY
  5
1E
102
{ACAD_REACTORS
330
19
102
}
100
AcDbDictionary
280
               0
281
               1
  3
Layout1
350
21
  3
Model
350
20
  0
DICTIONARY
  5
22
102
{ACAD_REACTORS
330
19
102
}
100
AcDbDictionary
280
               0
281
               1
  0
WIPEOUTVARIABLES
  5
23
100
AcDbWipeoutVariables
 70
               0
  0
ENDSEC
  0
EOF
