  0
SECTION
  2
HEADER
  9
$ACADVER
  1
AC1015
  9
$ACADMAINTVER
 70
               6
  9
$DWGCODEPAGE
  3
ANSI_932
  9
$INSBASE
 10
0.0
 20
0.0
 30
0.0
  9
$EXTMIN
 10
-3199.441110064422
 20
-860.82805797881451
 30
0.0
  9
$EXTMAX
 10
1321.8369282156414
 20
2451.1496640004393
 30
0.0
  9
$LIMMIN
 10
0.0
 20
0.0
  9
$LIMMAX
 10
0.0
 20
0.0
  9
$ORTHOMODE
 70
               0
  9
$REGENMODE
 70
               1
  9
$FILLMODE
 70
               1
  9
$QTEXTMODE
 70
               0
  9
$MIRRTEXT
 70
               1
  9
$LTSCALE
 40
101.59999999999999
  9
$ATTMODE
 70
               1
  9
$TEXTSIZE
 40
0.2
  9
$TRACEWID
 40
1.0
  9
$TEXTSTYLE
  7
Standard
  9
$CLAYER
  8
1
  9
$CELTYPE
  6
Continuous
  9
$CECOLOR
 62
             256
  9
$CELTSCALE
 40
1.0
  9
$DISPSILH
 70
               0
  9
$DIMSCALE
 40
1.0
  9
$DIMASZ
 40
0.18
  9
$DIMEXO
 40
0.0625
  9
$DIMDLI
 40
0.38
  9
$DIMRND
 40
0.0
  9
$DIMDLE
 40
0.0
  9
$DIMEXE
 40
0.18
  9
$DIMTP
 40
0.0
  9
$DIMTM
 40
0.0
  9
$DIMTXT
 40
0.18
  9
$DIMCEN
 40
0.09
  9
$DIMTSZ
 40
0.0
  9
$DIMTOL
 70
               0
  9
$DIMLIM
 70
               0
  9
$DIMTIH
 70
               1
  9
$DIMTOH
 70
               1
  9
$DIMSE1
 70
               0
  9
$DIMSE2
 70
               0
  9
$DIMTAD
 70
               0
  9
$DIMZIN
 70
               0
  9
$DIMBLK
  1

  9
$DIMASO
 70
               1
  9
$DIMSHO
 70
               1
  9
$DIMPOST
  1

  9
$DIMAPOST
  1

  9
$DIMALT
 70
               0
  9
$DIMALTD
 70
               2
  9
$DIMALTF
 40
25.399999999999999
  9
$DIMLFAC
 40
1.0
  9
$DIMTOFL
 70
               0
  9
$DIMTVP
 40
0.0
  9
$DIMTIX
 70
               0
  9
$DIMSOXD
 70
               0
  9
$DIMSAH
 70
               0
  9
$DIMBLK1
  1

  9
$DIMBLK2
  1

  9
$DIMSTYLE
  2
Standard
  9
$DIMCLRD
 70
               0
  9
$DIMCLRE
 70
               0
  9
$DIMCLRT
 70
               0
  9
$DIMTFAC
 40
1.0
  9
$DIMGAP
 40
0.09
  9
$DIMJUST
 70
               0
  9
$DIMSD1
 70
               0
  9
$DIMSD2
 70
               0
  9
$DIMTOLJ
 70
               1
  9
$DIMTZIN
 70
               0
  9
$DIMALTZ
 70
               0
  9
$DIMALTTZ
 70
               0
  9
$DIMUPT
 70
               0
  9
$DIMDEC
 70
               4
  9
$DIMTDEC
 70
               4
  9
$DIMALTU
 70
               2
  9
$DIMALTTD
 70
               2
  9
$DIMTXSTY
  7
Standard
  9
$DIMAUNIT
 70
               0
  9
$DIMADEC
 70
               0
  9
$DIMALTRND
 40
0.0
  9
$DIMAZIN
 70
               0
  9
$DIMDSEP
 70
               0
  9
$DIMATFIT
 70
               3
  9
$DIMFRAC
 70
               0
  9
$DIMLDRBLK
  1

  9
$DIMLUNIT
 70
               2
  9
$DIMLWD
 70
               0
  9
$DIMLWE
 70
               0
  9
$DIMTMOVE
 70
               0
  9
$LUNITS
 70
               2
  9
$LUPREC
 70
               4
  9
$SKETCHINC
 40
0.1
  9
$FILLETRAD
 40
0.0
  9
$AUNITS
 70
               0
  9
$AUPREC
 70
               0
  9
$MENU
  1
acad
  9
$ELEVATION
 40
0.0
  9
$PELEVATION
 40
0.0
  9
$THICKNESS
 40
0.0
  9
$LIMCHECK
 70
               0
  9
$CHAMFERA
 40
0.0
  9
$CHAMFERB
 40
0.0
  9
$CHAMFERC
 40
0.0
  9
$CHAMFERD
 40
0.0
  9
$SKPOLY
 70
               0
  9
$TDCREATE
 40
2456361.754409722
  9
$TDUCREATE
 40
0.000000000
  9
$TDUPDATE
 40
2456361.754409722
  9
$TDUUPDATE
 40
0.000000000
  9
$TDINDWG
 40
0.0000000000
  9
$TDUSRTIMER
 40
0.0000000000
  9
$USRTIMER
 70
               1
  9
$ANGBASE
 50
0.0
  9
$ANGDIR
 70
               0
  9
$PDMODE
 70
               1
  9
$PDSIZE
 40
-2.0
  9
$PLINEWID
 40
0.0
  9
$SPLFRAME
 70
               0
  9
$SPLINETYPE
 70
               6
  9
$SPLINESEGS
 70
               8
  9
$HANDSEED
  5
2D6
  9
$SURFTAB1
 70
               6
  9
$SURFTAB2
 70
               6
  9
$SURFTYPE
 70
               6
  9
$SURFU
 70
               6
  9
$SURFV
 70
               6
  9
$UCSBASE
  2

  9
$UCSNAME
  2

  9
$UCSORG
 10
0.0
 20
0.0
 30
0.0
  9
$UCSXDIR
 10
1.0
 20
0.0
 30
0.0
  9
$UCSYDIR
 10
0.0
 20
1.0
 30
0.0
  9
$UCSORTHOREF
  2

  9
$UCSORTHOVIEW
 70
               0
  9
$UCSORGTOP
 10
0.0
 20
0.0
 30
0.0
  9
$UCSORGBOTTOM
 10
0.0
 20
0.0
 30
0.0
  9
$UCSORGLEFT
 10
0.0
 20
0.0
 30
0.0
  9
$UCSORGRIGHT
 10
0.0
 20
0.0
 30
0.0
  9
$UCSORGFRONT
 10
0.0
 20
0.0
 30
0.0
  9
$UCSORGBACK
 10
0.0
 20
0.0
 30
0.0
  9
$PUCSBASE
  2

  9
$PUCSNAME
  2

  9
$PUCSORG
 10
0.0
 20
0.0
 30
0.0
  9
$PUCSXDIR
 10
1.0
 20
0.0
 30
0.0
  9
$PUCSYDIR
 10
0.0
 20
1.0
 30
0.0
  9
$PUCSORTHOREF
  2

  9
$PUCSORTHOVIEW
 70
               0
  9
$PUCSORGTOP
 10
0.0
 20
0.0
 30
0.0
  9
$PUCSORGBOTTOM
 10
0.0
 20
0.0
 30
0.0
  9
$PUCSORGLEFT
 10
0.0
 20
0.0
 30
0.0
  9
$PUCSORGRIGHT
 10
0.0
 20
0.0
 30
0.0
  9
$PUCSORGFRONT
 10
0.0
 20
0.0
 30
0.0
  9
$PUCSORGBACK
 10
0.0
 20
0.0
 30
0.0
  9
$USERI1
 70
               0
  9
$USERI2
 70
               0
  9
$USERI3
 70
               0
  9
$USERI4
 70
               0
  9
$USERI5
 70
               0
  9
$USERR1
 40
0.0
  9
$USERR2
 40
0.0
  9
$USERR3
 40
0.0
  9
$USERR4
 40
0.0
  9
$USERR5
 40
0.0
  9
$WORLDVIEW
 70
               1
  9
$SHADEDGE
 70
               3
  9
$SHADEDIF
 70
              70
  9
$TILEMODE
 70
               1
  9
$MAXACTVP
 70
              64
  9
$PINSBASE
 10
0.0
 20
0.0
 30
0.0
  9
$PLIMCHECK
 70
               0
  9
$PEXTMIN
 10
1.0000000000000000E+20
 20
1.0000000000000000E+20
 30
1.0000000000000000E+20
  9
$PEXTMAX
 10
-1.0000000000000000E+20
 20
-1.0000000000000000E+20
 30
-1.0000000000000000E+20
  9
$PLIMMIN
 10
0.0
 20
0.0
  9
$PLIMMAX
 10
12.0
 20
9.0
  9
$UNITMODE
 70
               0
  9
$VISRETAIN
 70
               0
  9
$PLINEGEN
 70
               1
  9
$PSLTSCALE
 70
               0
  9
$TREEDEPTH
 70
            3020
  9
$CMLSTYLE
  2
Standard
  9
$CMLJUST
 70
               0
  9
$CMLSCALE
 40
1.0
  9
$PROXYGRAPHICS
 70
               0
  9
$MEASUREMENT
 70
               1
  9
$CELWEIGHT
370
               0
  9
$ENDCAPS
280
               0
  9
$JOINSTYLE
280
               0
  9
$LWDISPLAY
290
               1
  9
$INSUNITS
 70
               4
  9
$HYPERLINKBASE
  1

  9
$STYLESHEET
  1

  9
$XEDIT
290
               1
  9
$CEPSNTYPE
380
               0
  9
$PSTYLEMODE
290
               1
  9
$FINGERPRINTGUID
  2

  9
$VERSIONGUID
  2

  9
$EXTNAMES
290
               1
  9
$PSVPSCALE
 40
0.0
  0
ENDSEC
  0
SECTION
  2
CLASSES
  0
CLASS
  1
LWPOLYLINE
  2
AcDbPolyline
  3
AutoCAD 2000
 90
        0
280
               0
281
               1
  0
CLASS
  1
IMAGE
  2
AcDbRasterImage
  3
ISM
 90
      127
280
               0
281
               1
  0
CLASS
  1
OLE2FRAME
  2
AcDbOle2Frame
  3
AutoCAD 2000
 90
        0
280
               0
281
               1
  0
CLASS
  1
HATCH
  2
AcDbHatch
  3
AutoCAD 2000
 90
        0
280
               0
281
               1
  0
CLASS
  1
DICTIONARYVAR
  2
AcDbDictionaryVar
  3
AutoCAD 2000
 90
        0
280
               0
281
               0
  0
CLASS
  1
RASTERVARIABLES
  2
AcDbRasterVariables
  3
ISM
 90
        0
280
               0
281
               0
  0
CLASS
  1
IMAGEDEF
  2
AcDbRasterImageDef
  3
ISM
 90
        0
280
               0
281
               0
  0
CLASS
  1
IMAGEDEF_REACTOR
  2
AcDbRasterImageDefReactor
  3
ISM
 90
        1
280
               0
281
               0
  0
CLASS
  1
IDBUFFER
  2
AcDbIdBuffer
  3
AutoCAD 2000
 90
        0
280
               0
281
               0
  0
CLASS
  1
SPATIAL_FILTER
  2
AcDbSpatialFilter
  3
AutoCAD 2000
 90
        0
280
               0
281
               0
  0
CLASS
  1
XRECORD
  2
AcDbXrecord
  3
AutoCAD 2000
 90
        0
280
               0
281
               0
  0
CLASS
  1
SORTENTSTABLE
  2
AcDbSortentsTable
  3
AutoCAD 2000
 90
        0
280
               0
281
               0
  0
CLASS
  1
LAYER_INDEX
  2
AcDbLayerIndex
  3
AutoCAD 2000
 90
        0
280
               0
281
               0
  0
CLASS
  1
SPATIAL_INDEX
  2
AcDbSpatialIndex
  3
AutoCAD 2000
 90
        0
280
               0
281
               0
  0
CLASS
  1
OBJECT_PTR
  2
CAseDLPNTableRecord
  3
"ASE-LPNTableRecord"
 90
        1
280
               0
281
               0
  0
CLASS
  1
LAYOUT
  2
AcDbLayout
  3
AutoCAD 2000
 90
        0
280
               0
281
               0
  0
CLASS
  1
PLOTSETTINGS
  2
AcDbPlotSettings
  3
AutoCAD 2000
 90
        0
280
               0
281
               0
  0
CLASS
  1
ACDBDICTIONARYWDFLT
  2
AcDbDictionaryWithDefault
  3
AutoCAD 2000
 90
        0
280
               0
281
               0
  0
CLASS
  1
ACDBPLACEHOLDER
  2
AcDbPlaceHolder
  3
AutoCAD 2000
 90
        0
280
               0
281
               0
  0
CLASS
  1
VBA_PROJECT
  2
AcDbVbaProject
  3
acadvba
 90
        0
280
               0
281
               0
  0
CLASS
  1
WIPEOUT
  2
AcDbWipeout
  3
WipeOut|AutoCAD Express Tool|expresstools@autodesk.com
 90
      127
280
               0
281
               1
  0
CLASS
  1
WIPEOUTVARIABLES
  2
AcDbWipeoutVariables
  3
WipeOut|AutoCAD Express Tool|expresstools@autodesk.com
 90
        0
280
               0
281
               0
  0
CLASS
  1
RTEXT
  2
RText
  3
RText|AutoCAD Express Tool|expresstools@autodesk.com
 90
        0
280
               0
281
               1
  0
CLASS
  1
ARCALIGNEDTEXT
  2
AcDbArcAlignedText
  3
ATEXT|AutoCAD Express Tool|expresstools@autodesk.com
 90
        0
280
               0
281
               1
  0
ENDSEC
  0
SECTION
  2
TABLES
  0
TABLE
  2
VPORT
  5
7
100
AcDbSymbolTable
 70
               1
  0
VPORT
  5
15
100
AcDbSymbolTableRecord
100
AcDbViewportTableRecord
  2
*ACTIVE
 70
               0
 10
0.0
 20
0.0
 11
1.0
 21
1.0
 12
-938.80209092439054
 22
795.16080301081251
 13
0.0
 23
0.0
 14
1.0
 24
1.0
 15
0.0
 25
0.0
 16
0.0
 26
0.0
 36
1.0
 17
0.0
 27
0.0
 37
0.0
 40
3311.9777219792541
 41
0.688564
 42
50.0
 43
0.0
 44
0.0
 50
0.0
 51
0.0
 71
               0
 72
            2000
 73
               1
 74
               1
 75
               0
 76
               0
 77
               0
 78
               0
281
               0
 65
               0
110
0.0
120
0.0
130
0.0
111
1.0
121
0.0
131
0.0
112
0.0
122
1.0
132
0.0
345
0
346
0
 79
               0
146
0.0
  0
ENDTAB
  0
TABLE
  2
LTYPE
  5
4
100
AcDbSymbolTable
 70
              18
  0
LTYPE
  5
11
100
AcDbSymbolTableRecord
100
AcDbLinetypeTableRecord
  2
ByBlock
 70
              64
  3

 72
              65
 73
               0
 40
0.0
  0
LTYPE
  5
12
100
AcDbSymbolTableRecord
100
AcDbLinetypeTableRecord
  2
ByLayer
 70
              64
  3

 72
              65
 73
               0
 40
0.0
  0
LTYPE
  5
13
100
AcDbSymbolTableRecord
100
AcDbLinetypeTableRecord
  2
Continuous
 70
              64
  3
Solid line
 72
              65
 73
               0
 40
0.0
  0
LTYPE
  5
26
100
AcDbSymbolTableRecord
100
AcDbLinetypeTableRecord
  2
STYLE_01
 70
               0
  3

 72
              65
 73
               2
 40
0.4166412353515625
 49
0.208282470703125
 74
               0
 49
-0.2083587646484375
 74
               0
  0
LTYPE
  5
27
100
AcDbSymbolTableRecord
100
AcDbLinetypeTableRecord
  2
STYLE_02
 70
               0
  3

 72
              65
 73
               2
 40
0.694427490234375
 49
0.4860687255859375
 74
               0
 49
-0.2083587646484375
 74
               0
  0
LTYPE
  5
28
100
AcDbSymbolTableRecord
100
AcDbLinetypeTableRecord
  2
STYLE_03
 70
               0
  3

 72
              65
 73
               2
 40
1.25
 49
1.0416412353515625
 74
               0
 49
-0.2083587646484375
 74
               0
  0
LTYPE
  5
29
100
AcDbSymbolTableRecord
100
AcDbLinetypeTableRecord
  2
STYLE_04
 70
               0
  3

 72
              65
 73
               2
 40
1.5277099609375
 49
1.319427490234375
 74
               0
 49
-0.208282470703125
 74
               0
  0
LTYPE
  5
2A
100
AcDbSymbolTableRecord
100
AcDbLinetypeTableRecord
  2
STYLE_05
 70
               0
  3

 72
              65
 73
               2
 40
0.208282470703125
 49
0.069427490234375
 74
               0
 49
-0.13885498046875
 74
               0
  0
LTYPE
  5
2B
100
AcDbSymbolTableRecord
100
AcDbLinetypeTableRecord
  2
STYLE_06
 70
               0
  3

 72
              65
 73
               4
 40
1.0416412353515625
 49
0.625
 74
               0
 49
-0.208282470703125
 74
               0
 49
0.069427490234375
 74
               0
 49
-0.1389312744140625
 74
               0
  0
LTYPE
  5
2C
100
AcDbSymbolTableRecord
100
AcDbLinetypeTableRecord
  2
STYLE_07
 70
               0
  3

 72
              65
 73
               6
 40
1.875
 49
0.625
 74
               0
 49
-0.208282470703125
 74
               0
 49
0.625
 74
               0
 49
-0.2083587646484375
 74
               0
 49
0.069427490234375
 74
               0
 49
-0.1389312744140625
 74
               0
  0
LTYPE
  5
2D
100
AcDbSymbolTableRecord
100
AcDbLinetypeTableRecord
  2
STYLE_08
 70
               0
  3

 72
              65
 73
               6
 40
1.25
 49
0.625
 74
               0
 49
-0.208282470703125
 74
               0
 49
0.069427490234375
 74
               0
 49
-0.1389312744140625
 74
               0
 49
0.069427490234375
 74
               0
 49
-0.1389312744140625
 74
               0
  0
LTYPE
  5
2E
100
AcDbSymbolTableRecord
100
AcDbLinetypeTableRecord
  2
STYLE_09
 70
               0
  3

 72
              65
 73
               4
 40
5.0
 49
3.75
 74
               0
 49
-0.2777862548828125
 74
               0
 49
0.694427490234375
 74
               0
 49
-0.2777862548828125
 74
               0
  0
LTYPE
  5
2F
100
AcDbSymbolTableRecord
100
AcDbLinetypeTableRecord
  2
STYLE_10
 70
               0
  3

 72
              65
 73
               6
 40
5.9375
 49
3.75
 74
               0
 49
-0.2777862548828125
 74
               0
 49
0.694427490234375
 74
               0
 49
-0.2777862548828125
 74
               0
 49
0.625
 74
               0
 49
-0.3125
 74
               0
  0
LTYPE
  5
30
100
AcDbSymbolTableRecord
100
AcDbLinetypeTableRecord
  2
STYLE_11
 70
               0
  3

 72
              65
 73
               2
 40
0.13885498046875
 49
0.069427490234375
 74
               0
 49
-0.069427490234375
 74
               0
  0
LTYPE
  5
31
100
AcDbSymbolTableRecord
100
AcDbLinetypeTableRecord
  2
STYLE_12
 70
               0
  3

 72
              65
 73
               6
 40
0.0098425196850394
 49
0.0049591064453125
 74
               0
 49
-0.0009918212890625
 74
               0
 49
0.0009918212890625
 74
               0
 49
-0.0009918212890625
 74
               0
 49
0.0009918212890625
 74
               0
 49
-0.0009918212890625
 74
               0
  0
LTYPE
  5
32
100
AcDbSymbolTableRecord
100
AcDbLinetypeTableRecord
  2
STYLE_13
 70
               0
  3

 72
              65
 73
               2
 40
0.2777862548828125
 49
0.2083587646484375
 74
               0
 49
-0.069427490234375
 74
               0
  0
LTYPE
  5
33
100
AcDbSymbolTableRecord
100
AcDbLinetypeTableRecord
  2
STYLE_14
 70
               0
  3

 72
              65
 73
               2
 40
0.3472137451171875
 49
0.208282470703125
 74
               0
 49
-0.1389312744140625
 74
               0
  0
LTYPE
  5
34
100
AcDbSymbolTableRecord
100
AcDbLinetypeTableRecord
  2
STYLE_15
 70
               0
  3

 72
              65
 73
               2
 40
0.2777099609375
 49
0.208282470703125
 74
               0
 49
-0.069427490234375
 74
               0
  0
ENDTAB
  0
TABLE
  2
LAYER
  5
2
100
AcDbSymbolTable
 70
               6
  0
LAYER
  5
14
100
AcDbSymbolTableRecord
100
AcDbLayerTableRecord
  2
0
 70
               0
 62
               7
  6
Continuous
290
               1
370
              18
390
1D
  0
LAYER
  5
35
100
AcDbSymbolTableRecord
100
AcDbLayerTableRecord
  2
一般
 70
               0
 62
               7
  6
Continuous
290
               1
370
               5
390
1D
  0
LAYER
  5
36
100
AcDbSymbolTableRecord
100
AcDbLayerTableRecord
  2
2
 70
               0
 62
               7
  6
Continuous
290
               1
370
               5
390
1D
  0
LAYER
  5
37
100
AcDbSymbolTableRecord
100
AcDbLayerTableRecord
  2
3
 70
               0
 62
               7
  6
Continuous
290
               1
370
               5
390
1D
  0
LAYER
  5
38
100
AcDbSymbolTableRecord
100
AcDbLayerTableRecord
  2
寸法
 70
               0
 62
               7
  6
Continuous
290
               1
370
               5
390
1D
  0
LAYER
  5
39
100
AcDbSymbolTableRecord
100
AcDbLayerTableRecord
  2
1
 70
               0
 62
               7
  6
Continuous
290
               1
370
              15
390
1D
  0
ENDTAB
  0
TABLE
  2
STYLE
  5
3
100
AcDbSymbolTable
 70
               3
  0
STYLE
  5
17
100
AcDbSymbolTableRecord
100
AcDbTextStyleTableRecord
  2
Standard
 70
               0
 40
0.0
 41
1.0
 50
0.0
 71
               0
 42
0.0
  3
txt
  4
BIGFONT.SHX
  0
STYLE
  5
24
100
AcDbSymbolTableRecord
100
AcDbTextStyleTableRecord
  2
Arial
 70
               0
 40
0.0
 41
1.0
 50
0.0
 71
               0
 42
0.0
  3

  4
Arial
1001
ACAD
1000
Arial
1071
        0
  0
STYLE
  5
25
100
AcDbSymbolTableRecord
100
AcDbTextStyleTableRecord
  2
Arial (bold)
 70
               0
 40
0.0
 41
1.0
 50
0.0
 71
               0
 42
0.0
  3

  4
Arial
1001
ACAD
1000
Arial
1071
 33554432
  0
ENDTAB
  0
TABLE
  2
VIEW
  5
5
100
AcDbSymbolTable
 70
               0
  0
ENDTAB
  0
TABLE
  2
UCS
  5
6
100
AcDbSymbolTable
 70
               0
  0
ENDTAB
  0
TABLE
  2
APPID
  5
8
100
AcDbSymbolTable
 70
               1
  0
APPID
  5
16
100
AcDbSymbolTableRecord
100
AcDbRegAppTableRecord
  2
ACAD
 70
               0
  0
ENDTAB
  0
TABLE
  2
DIMSTYLE
  5
9
100
AcDbSymbolTable
 70
               1
100
AcDbDimStyleTable
 71
               0
  0
DIMSTYLE
105
18
100
AcDbSymbolTableRecord
100
AcDbDimStyleTableRecord
  2
Standard
 70
               0
  3

  4

 40
1.0
 41
0.18
 42
0.0625
 43
0.38
 44
0.18
 45
0.0
 46
0.0
 47
0.0
 48
0.0
 71
               0
 72
               0
 73
               1
 74
               1
 75
               0
 76
               0
 77
               0
 78
               0
 79
               0
140
0.18
141
0.09
142
0.0
143
25.399999999999999
144
1.0
145
0.0
146
1.0
147
0.09
148
0.0
170
               0
171
               2
172
               0
173
               0
174
               0
175
               0
176
               0
177
               0
178
               0
179
               0
271
               4
272
               4
273
               2
274
               2
275
               0
276
               0
277
               2
278
              46
279
               0
280
               0
281
               0
282
               0
283
               1
284
               0
285
               0
286
               0
288
               0
289
               3
340
17
341
0
342
0
343
0
344
0
371
              -2
372
              -2
  0
ENDTAB
  0
TABLE
  2
BLOCK_RECORD
  5
1
100
AcDbSymbolTable
 70
               0
  0
BLOCK_RECORD
  5
A
100
AcDbSymbolTableRecord
100
AcDbBlockTableRecord
  2
*MODEL_SPACE
340
20
  0
BLOCK_RECORD
  5
B
100
AcDbSymbolTableRecord
100
AcDbBlockTableRecord
  2
*PAPER_SPACE
340
21
  0
ENDTAB
  0
ENDSEC
  0
SECTION
  2
BLOCKS
  0
BLOCK
  5
D
100
AcDbEntity
  8
0
390
0
100
AcDbBlockBegin
  2
*MODEL_SPACE
 70
               0
 10
0.0
 20
0.0
 30
0.0
  3
*MODEL_SPACE
  1

  0
ENDBLK
  5
E
100
AcDbEntity
  8
0
390
0
100
AcDbBlockEnd
  0
BLOCK
  5
F
100
AcDbEntity
 67
               1
  8
0
390
0
100
AcDbBlockBegin
  2
*PAPER_SPACE
 70
               0
 10
0.0
 20
0.0
 30
0.0
  3
*PAPER_SPACE
  1

  0
ENDBLK
  5
10
100
AcDbEntity
 67
               1
  8
0
390
0
100
AcDbBlockEnd
  0
ENDSEC
  0
SECTION
  2
ENTITIES
  0
WIPEOUT
  5
3A
100
AcDbEntity
  8
1
370
               5
390
0
  6
Continuous
 62
               7
 92
        0
100
AcDbWipeout
 90
        0
 10
385.83379472809133
 20
2173.2014668857141
 30
0.0
 11
550.49869791666674
 21
0.0
 31
0.0
 12
0.0
 22
550.49869791666674
 32
0.0
 13
1.0
 23
1.0
340
0
 70
               7
280
               1
281
              50
282
              50
283
               0
360
0
 71
               2
 91
        5
 14
-0.5
 24
0.5
 14
0.5
 24
0.5
 14
0.5
 24
0.3231300690898166
 14
-0.5
 24
0.3231300690898166
 14
-0.5
 24
0.5
  0
MTEXT
  5
3B
100
AcDbEntity
  8
1
390
0
 62
               7
100
AcDbMText
 10
385.83379472809133
 20
2255.0018141079363
 30
0.0
 40
60.633680555555543
 41
0.0
 71
               1
 72
               1
  1
N.TEC,Co.Ltd.
  7
Arial
 73
               1
 44
0.9673603504928806
  0
MTEXT
  5
3C
100
AcDbEntity
  8
2
390
0
 62
               7
100
AcDbMText
 10
371.36264436147508
 20
2433.0433445559947
 30
0.0
 40
60.633680555555543
 41
0.0
 71
               1
 72
               1
  1
GAGGENAU  RC472700
  7
Arial (bold)
 73
               1
 44
0.992595837897043
  0
LINE
  5
3D
100
AcDbEntity
  8
一般
370
              18
390
0
  6
Continuous
 62
               7
100
AcDbLine
 10
-1498.8401417043804
 20
-586.92040654679931
 30
0.0
 11
-1498.8401417043804
 21
-681.92040654679931
 31
0.0
  0
LINE
  5
3E
100
AcDbEntity
  8
一般
370
              18
390
0
  6
Continuous
 62
               7
100
AcDbLine
 10
-1524.8991453979218
 20
-681.97722121753554
 30
0.0
 11
-1524.8991453979218
 21
-761.97722121753554
 31
0.0
  0
LINE
  5
3F
100
AcDbEntity
  8
一般
370
              18
390
0
  6
Continuous
 62
               7
100
AcDbLine
 10
-1548.0253363192182
 20
-762.06245638714699
 30
0.0
 11
-1548.0253363192182
 21
-837.06245638714699
 31
0.0
  0
LINE
  5
40
100
AcDbEntity
  8
一般
370
               5
390
0
  6
Continuous
 62
               7
100
AcDbLine
 10
-3199.441110064422
 20
1709.2159614574261
 30
0.0
 11
-2443.441110064422
 21
1709.2159614574261
 31
0.0
  0
POLYLINE
  5
41
100
AcDbEntity
  8
一般
370
              18
390
0
  6
Continuous
 62
               7
100
AcDb2dPolyline
 66
               1
 10
0.0
 20
0.0
 30
0.0
 70
               1
 75
               5
  0
VERTEX
  5
42
100
AcDbEntity
  8
一般
370
              18
390
0
  6
Continuous
 62
               7
100
AcDbVertex
100
AcDb2dVertex
 10
-3199.067324034374
 20
2317.2289017580574
 30
0.0
  0
VERTEX
  5
43
100
AcDbEntity
  8
一般
370
              18
390
0
  6
Continuous
 62
               7
100
AcDbVertex
100
AcDb2dVertex
 10
-2443.067324034374
 20
2317.2289017580574
 30
0.0
  0
VERTEX
  5
44
100
AcDbEntity
  8
一般
370
              18
390
0
  6
Continuous
 62
               7
100
AcDbVertex
100
AcDb2dVertex
 10
-2443.067324034374
 20
1762.2289017580651
 30
0.0
  0
VERTEX
  5
45
100
AcDbEntity
  8
一般
370
              18
390
0
  6
Continuous
 62
               7
100
AcDbVertex
100
AcDb2dVertex
 10
-3199.067324034374
 20
1762.2289017580651
 30
0.0
  0
SEQEND
  5
46
100
AcDbEntity
  8
一般
370
              18
390
0
  6
Continuous
 62
               7
  0
POLYLINE
  5
48
100
AcDbEntity
  8
一般
370
              15
390
0
  6
Continuous
 62
               7
100
AcDb2dPolyline
 66
               1
 10
0.0
 20
0.0
 30
0.0
 70
               1
 75
               5
  0
VERTEX
  5
49
100
AcDbEntity
  8
一般
370
              15
390
0
  6
Continuous
 62
               7
100
AcDbVertex
100
AcDb2dVertex
 10
-3195.441110064422
 20
1762.2336791684193
 30
0.0
  0
VERTEX
  5
4A
100
AcDbEntity
  8
一般
370
              15
390
0
  6
Continuous
 62
               7
100
AcDbVertex
100
AcDb2dVertex
 10
-2445.441110064422
 20
1762.2336791684193
 30
0.0
  0
VERTEX
  5
4B
100
AcDbEntity
  8
一般
370
              15
390
0
  6
Continuous
 62
               7
100
AcDbVertex
100
AcDb2dVertex
 10
-2445.441110064422
 20
1741.2336791684197
 30
0.0
  0
VERTEX
  5
4C
100
AcDbEntity
  8
一般
370
              15
390
0
  6
Continuous
 62
               7
100
AcDbVertex
100
AcDb2dVertex
 10
-3195.441110064422
 20
1741.2336791684197
 30
0.0
  0
SEQEND
  5
4D
100
AcDbEntity
  8
一般
370
              15
390
0
  6
Continuous
 62
               7
  0
POLYLINE
  5
4F
100
AcDbEntity
  8
一般
370
              15
390
0
  6
Continuous
 62
               7
100
AcDb2dPolyline
 66
               1
 10
0.0
 20
0.0
 30
0.0
 70
               1
 75
               5
  0
VERTEX
  5
50
100
AcDbEntity
  8
一般
370
              15
390
0
  6
Continuous
 62
               7
100
AcDbVertex
100
AcDb2dVertex
 10
-3195.441110064422
 20
1741.2336791684197
 30
0.0
  0
VERTEX
  5
51
100
AcDbEntity
  8
一般
370
              15
390
0
  6
Continuous
 62
               7
100
AcDbVertex
100
AcDb2dVertex
 10
-2445.441110064422
 20
1741.2336791684197
 30
0.0
  0
VERTEX
  5
52
100
AcDbEntity
  8
一般
370
              15
390
0
  6
Continuous
 62
               7
100
AcDbVertex
100
AcDb2dVertex
 10
-2445.441110064422
 20
1711.2336791684202
 30
0.0
  0
VERTEX
  5
53
100
AcDbEntity
  8
一般
370
              15
390
0
  6
Continuous
 62
               7
100
AcDbVertex
100
AcDb2dVertex
 10
-3195.441110064422
 20
1711.2336791684202
 30
0.0
  0
SEQEND
  5
54
100
AcDbEntity
  8
一般
370
              15
390
0
  6
Continuous
 62
               7
  0
POLYLINE
  5
56
100
AcDbEntity
  8
一般
370
              18
390
0
  6
Continuous
 62
               7
100
AcDb2dPolyline
 66
               1
 10
0.0
 20
0.0
 30
0.0
 70
               1
 75
               5
  0
VERTEX
  5
57
100
AcDbEntity
  8
一般
370
              18
390
0
  6
Continuous
 62
               7
100
AcDbVertex
100
AcDb2dVertex
 10
-3199.067324034374
 20
1264.1265609834472
 30
0.0
  0
VERTEX
  5
58
100
AcDbEntity
  8
一般
370
              18
390
0
  6
Continuous
 62
               7
100
AcDbVertex
100
AcDb2dVertex
 10
-2443.067324034374
 20
1264.1265609834472
 30
0.0
  0
VERTEX
  5
59
100
AcDbEntity
  8
一般
370
              18
390
0
  6
Continuous
 62
               7
100
AcDbVertex
100
AcDb2dVertex
 10
-2443.067324034374
 20
-836.87343901655277
 30
0.0
  0
VERTEX
  5
5A
100
AcDbEntity
  8
一般
370
              18
390
0
  6
Continuous
 62
               7
100
AcDbVertex
100
AcDb2dVertex
 10
-3199.067324034374
 20
-836.87343901655277
 30
0.0
  0
SEQEND
  5
5B
100
AcDbEntity
  8
一般
370
              18
390
0
  6
Continuous
 62
               7
  0
LINE
  5
5D
100
AcDbEntity
  8
一般
370
              18
390
0
  6
Continuous
 62
               7
100
AcDbLine
 10
-2050.83618398522
 20
-586.89850562738388
 30
0.0
 11
-1495.8361839852232
 21
-586.89850562738388
 31
0.0
  0
LINE
  5
5E
100
AcDbEntity
  8
一般
370
              18
390
0
  6
Continuous
 62
               7
100
AcDbLine
 10
-3199.0283376666434
 20
-586.89850562738388
 30
0.0
 11
-2443.0283376666434
 21
-586.89850562738388
 31
0.0
  0
LINE
  5
5F
100
AcDbEntity
  8
一般
370
              18
390
0
  6
Continuous
 62
               7
100
AcDbLine
 10
-3199.0283376666434
 20
-681.89850562738388
 30
0.0
 11
-2443.0283376666434
 21
-681.89850562738388
 31
0.0
  0
LINE
  5
60
100
AcDbEntity
  8
一般
370
              18
390
0
  6
Continuous
 62
               7
100
AcDbLine
 10
-3199.0283376666434
 20
-761.89850562738388
 30
0.0
 11
-2443.0283376666434
 21
-761.89850562738388
 31
0.0
  0
POLYLINE
  5
61
100
AcDbEntity
  8
寸法
370
              15
390
0
  6
Continuous
 62
               7
100
AcDb2dPolyline
 66
               1
 10
0.0
 20
0.0
 30
0.0
 70
               1
 75
               5
  0
VERTEX
  5
62
100
AcDbEntity
  8
寸法
370
              15
390
0
  6
Continuous
 62
               7
100
AcDbVertex
100
AcDb2dVertex
 10
-3186.0821436750293
 20
-857.31445724728383
 30
0.0
  0
VERTEX
  5
63
100
AcDbEntity
  8
寸法
370
              15
390
0
  6
Continuous
 62
               7
100
AcDbVertex
100
AcDb2dVertex
 10
-3156.0821436750293
 20
-857.31445724728383
 30
0.0
  0
VERTEX
  5
64
100
AcDbEntity
  8
寸法
370
              15
390
0
  6
Continuous
 62
               7
100
AcDbVertex
100
AcDb2dVertex
 10
-3156.0821436750293
 20
-860.81445724728383
 30
0.0
  0
VERTEX
  5
65
100
AcDbEntity
  8
寸法
370
              15
390
0
  6
Continuous
 62
               7
100
AcDbVertex
100
AcDb2dVertex
 10
-3186.0821436750293
 20
-860.81445724728383
 30
0.0
  0
SEQEND
  5
66
100
AcDbEntity
  8
寸法
370
              15
390
0
  6
Continuous
 62
               7
  0
WIPEOUT
  5
68
100
AcDbEntity
  8
寸法
370
              15
390
0
  6
Continuous
 62
               7
 92
        0
100
AcDbWipeout
 90
        0
 10
-3177.7396649167968
 20
-857.31445724728383
 30
0.0
 11
20.471841620039868
 21
0.0
 31
0.0
 12
0.0
 22
20.471841620039868
 32
0.0
 13
1.0
 23
1.0
340
0
 70
               7
280
               1
281
              50
282
              50
283
               0
360
0
 71
               2
 91
        5
 14
-0.5
 24
-0.5
 14
0.1350185899872491
 24
-0.5
 14
0.1350185899872491
 24
0.5
 14
-0.5
 24
0.5
 14
-0.5
 24
-0.5
  0
POLYLINE
  5
69
100
AcDbEntity
  8
寸法
370
              15
390
0
  6
Continuous
 62
               7
100
AcDb2dPolyline
 66
               1
 10
0.0
 20
0.0
 30
0.0
 70
               1
 75
               5
  0
VERTEX
  5
6A
100
AcDbEntity
  8
寸法
370
              15
390
0
  6
Continuous
 62
               7
100
AcDbVertex
100
AcDb2dVertex
 10
-3177.7396649167968
 20
-836.84261562724396
 30
0.0
  0
VERTEX
  5
6B
100
AcDbEntity
  8
寸法
370
              15
390
0
  6
Continuous
 62
               7
100
AcDbVertex
100
AcDb2dVertex
 10
-3164.7396649167968
 20
-836.84261562724396
 30
0.0
  0
VERTEX
  5
6C
100
AcDbEntity
  8
寸法
370
              15
390
0
  6
Continuous
 62
               7
100
AcDbVertex
100
AcDb2dVertex
 10
-3164.7396649167968
 20
-857.31445724728383
 30
0.0
  0
VERTEX
  5
6D
100
AcDbEntity
  8
寸法
370
              15
390
0
  6
Continuous
 62
               7
100
AcDbVertex
100
AcDb2dVertex
 10
-3177.7396649167968
 20
-857.31445724728383
 30
0.0
  0
SEQEND
  5
6E
100
AcDbEntity
  8
寸法
370
              15
390
0
  6
Continuous
 62
               7
  0
POLYLINE
  5
70
100
AcDbEntity
  8
寸法
370
              15
390
0
  6
Continuous
 62
               7
100
AcDb2dPolyline
 66
               1
 10
0.0
 20
0.0
 30
0.0
 70
               1
 75
               5
  0
VERTEX
  5
71
100
AcDbEntity
  8
寸法
370
              15
390
0
  6
Continuous
 62
               7
100
AcDbVertex
100
AcDb2dVertex
 10
-2485.9912753882372
 20
-857.31445724728383
 30
0.0
  0
VERTEX
  5
72
100
AcDbEntity
  8
寸法
370
              15
390
0
  6
Continuous
 62
               7
100
AcDbVertex
100
AcDb2dVertex
 10
-2455.9912753882372
 20
-857.31445724728383
 30
0.0
  0
VERTEX
  5
73
100
AcDbEntity
  8
寸法
370
              15
390
0
  6
Continuous
 62
               7
100
AcDbVertex
100
AcDb2dVertex
 10
-2455.9912753882372
 20
-860.81445724728383
 30
0.0
  0
VERTEX
  5
74
100
AcDbEntity
  8
寸法
370
              15
390
0
  6
Continuous
 62
               7
100
AcDbVertex
100
AcDb2dVertex
 10
-2485.9912753882372
 20
-860.81445724728383
 30
0.0
  0
SEQEND
  5
75
100
AcDbEntity
  8
寸法
370
              15
390
0
  6
Continuous
 62
               7
  0
WIPEOUT
  5
77
100
AcDbEntity
  8
寸法
370
              15
390
0
  6
Continuous
 62
               7
 92
        0
100
AcDbWipeout
 90
        0
 10
-2477.6487966300047
 20
-857.31445724728383
 30
0.0
 11
20.471841620039868
 21
0.0
 31
0.0
 12
0.0
 22
20.471841620039868
 32
0.0
 13
1.0
 23
1.0
340
0
 70
               7
280
               1
281
              50
282
              50
283
               0
360
0
 71
               2
 91
        5
 14
-0.5
 24
-0.5
 14
0.1350185899872491
 24
-0.5
 14
0.1350185899872491
 24
0.5
 14
-0.5
 24
0.5
 14
-0.5
 24
-0.5
  0
POLYLINE
  5
78
100
AcDbEntity
  8
寸法
370
              15
390
0
  6
Continuous
 62
               7
100
AcDb2dPolyline
 66
               1
 10
0.0
 20
0.0
 30
0.0
 70
               1
 75
               5
  0
VERTEX
  5
79
100
AcDbEntity
  8
寸法
370
              15
390
0
  6
Continuous
 62
               7
100
AcDbVertex
100
AcDb2dVertex
 10
-2477.6487966300047
 20
-836.84261562724396
 30
0.0
  0
VERTEX
  5
7A
100
AcDbEntity
  8
寸法
370
              15
390
0
  6
Continuous
 62
               7
100
AcDbVertex
100
AcDb2dVertex
 10
-2464.6487966300047
 20
-836.84261562724396
 30
0.0
  0
VERTEX
  5
7B
100
AcDbEntity
  8
寸法
370
              15
390
0
  6
Continuous
 62
               7
100
AcDbVertex
100
AcDb2dVertex
 10
-2464.6487966300047
 20
-857.31445724728383
 30
0.0
  0
VERTEX
  5
7C
100
AcDbEntity
  8
寸法
370
              15
390
0
  6
Continuous
 62
               7
100
AcDbVertex
100
AcDb2dVertex
 10
-2477.6487966300047
 20
-857.31445724728383
 30
0.0
  0
SEQEND
  5
7D
100
AcDbEntity
  8
寸法
370
              15
390
0
  6
Continuous
 62
               7
  0
POLYLINE
  5
7F
100
AcDbEntity
  8
一般
370
              18
390
0
  6
Continuous
 62
               7
100
AcDb2dPolyline
 66
               1
 10
0.0
 20
0.0
 30
0.0
 70
               1
 75
               5
  0
VERTEX
  5
80
100
AcDbEntity
  8
一般
370
              18
390
0
  6
Continuous
 62
               7
100
AcDbVertex
100
AcDb2dVertex
 10
-3199.0782999860153
 20
1184.0996636460318
 30
0.0
  0
VERTEX
  5
81
100
AcDbEntity
  8
一般
370
              18
390
0
  6
Continuous
 62
               7
100
AcDbVertex
100
AcDb2dVertex
 10
-2443.0782999860153
 20
1184.0996636460318
 30
0.0
  0
VERTEX
  5
82
100
AcDbEntity
  8
一般
370
              18
390
0
  6
Continuous
 62
               7
100
AcDbVertex
100
AcDb2dVertex
 10
-2443.0782999860153
 20
-585.90033635396821
 30
0.0
  0
VERTEX
  5
83
100
AcDbEntity
  8
一般
370
              18
390
0
  6
Continuous
 62
               7
100
AcDbVertex
100
AcDb2dVertex
 10
-3199.0782999860153
 20
-585.90033635396821
 30
0.0
  0
SEQEND
  5
84
100
AcDbEntity
  8
一般
370
              18
390
0
  6
Continuous
 62
               7
  0
LINE
  5
86
100
AcDbEntity
  8
一般
370
               5
390
0
  6
STYLE_06
 62
               7
100
AcDbLine
 10
-3193.441110064422
 20
1172.51098354955
 30
0.0
 11
-2443.2411100644222
 21
298.99228667954412
 31
0.0
  0
LINE
  5
87
100
AcDbEntity
  8
一般
370
               5
390
0
  6
STYLE_06
 62
               7
100
AcDbLine
 10
-2443.2411100644217
 20
298.79228667954408
 30
0.0
 11
-3195.441110064422
 21
-585.48901645044998
 31
0.0
  0
LINE
  5
88
100
AcDbEntity
  8
一般
370
              18
390
0
  6
Continuous
 62
               7
100
AcDbLine
 10
-2050.83618398522
 20
-586.89850562738388
 30
0.0
 11
-2050.83618398522
 21
1264.126560983455
 31
0.0
  0
LINE
  5
89
100
AcDbEntity
  8
一般
370
              18
390
0
  6
Continuous
 62
               7
100
AcDbLine
 10
-1548.0253363192182
 20
-836.87343901655277
 30
0.0
 11
-2020.5672070982018
 21
-836.87343901655277
 31
0.0
  0
LINE
  5
8A
100
AcDbEntity
  8
一般
370
              18
390
0
  6
Continuous
 62
               7
100
AcDbLine
 10
-2050.83618398522
 20
1264.126560983455
 30
0.0
 11
-1495.8361839852232
 21
1264.126560983455
 31
0.0
  0
LINE
  5
8B
100
AcDbEntity
  8
一般
370
              18
390
0
  6
Continuous
 62
               7
100
AcDbLine
 10
-2020.5672070982018
 20
-836.67258393935936
 30
0.0
 11
-2020.5672070982023
 21
-586.89850562738388
 31
0.0
  0
LINE
  5
8C
100
AcDbEntity
  8
一般
370
              18
390
0
  6
Continuous
 62
               7
100
AcDbLine
 10
-1495.8361839852232
 20
-586.89850562738388
 30
0.0
 11
-1495.8361839852232
 21
1264.126560983455
 31
0.0
  0
POLYLINE
  5
8D
100
AcDbEntity
  8
一般
370
              15
390
0
  6
Continuous
 62
               7
100
AcDb2dPolyline
 66
               1
 10
0.0
 20
0.0
 30
0.0
 70
               1
 75
               5
  0
VERTEX
  5
8E
100
AcDbEntity
  8
一般
370
              15
390
0
  6
Continuous
 62
               7
100
AcDbVertex
100
AcDb2dVertex
 10
-1495.8404178840303
 20
1184.1422866795356
 30
0.0
  0
VERTEX
  5
8F
100
AcDbEntity
  8
一般
370
              15
390
0
  6
Continuous
 62
               7
100
AcDbVertex
100
AcDb2dVertex
 10
-1474.8404178840303
 20
1184.1422866795356
 30
0.0
  0
VERTEX
  5
90
100
AcDbEntity
  8
一般
370
              15
390
0
  6
Continuous
 62
               7
100
AcDbVertex
100
AcDb2dVertex
 10
-1474.8404178840303
 20
-562.85771332046465
 30
0.0
  0
VERTEX
  5
91
100
AcDbEntity
  8
一般
370
              15
390
0
  6
Continuous
 62
               7
100
AcDbVertex
100
AcDb2dVertex
 10
-1495.8404178840303
 20
-562.85771332046465
 30
0.0
  0
SEQEND
  5
92
100
AcDbEntity
  8
一般
370
              15
390
0
  6
Continuous
 62
               7
  0
POLYLINE
  5
94
100
AcDbEntity
  8
一般
370
              15
390
0
  6
Continuous
 62
               7
100
AcDb2dPolyline
 66
               1
 10
0.0
 20
0.0
 30
0.0
 70
               1
 75
               5
  0
VERTEX
  5
95
100
AcDbEntity
  8
一般
370
              15
390
0
  6
Continuous
 62
               7
100
AcDbVertex
100
AcDb2dVertex
 10
-1474.8404178840303
 20
1184.1422866795356
 30
0.0
  0
VERTEX
  5
96
100
AcDbEntity
  8
一般
370
              15
390
0
  6
Continuous
 62
               7
100
AcDbVertex
100
AcDb2dVertex
 10
-1444.8404178840303
 20
1184.1422866795356
 30
0.0
  0
VERTEX
  5
97
100
AcDbEntity
  8
一般
370
              15
390
0
  6
Continuous
 62
               7
100
AcDbVertex
100
AcDb2dVertex
 10
-1444.8404178840303
 20
-585.85771332046465
 30
0.0
  0
VERTEX
  5
98
100
AcDbEntity
  8
一般
370
              15
390
0
  6
Continuous
 62
               7
100
AcDbVertex
100
AcDb2dVertex
 10
-1474.8404178840303
 20
-585.85771332046465
 30
0.0
  0
SEQEND
  5
99
100
AcDbEntity
  8
一般
370
              15
390
0
  6
Continuous
 62
               7
  0
POLYLINE
  5
9B
100
AcDbEntity
  8
寸法
370
              15
390
0
  6
Continuous
 62
               7
100
AcDb2dPolyline
 66
               1
 10
0.0
 20
0.0
 30
0.0
 70
               1
 75
               5
  0
VERTEX
  5
9C
100
AcDbEntity
  8
寸法
370
              15
390
0
  6
Continuous
 62
               7
100
AcDbVertex
100
AcDb2dVertex
 10
-1576.4100459925021
 20
-857.31445724728383
 30
0.0
  0
VERTEX
  5
9D
100
AcDbEntity
  8
寸法
370
              15
390
0
  6
Continuous
 62
               7
100
AcDbVertex
100
AcDb2dVertex
 10
-1546.4100459925021
 20
-857.31445724728383
 30
0.0
  0
VERTEX
  5
9E
100
AcDbEntity
  8
寸法
370
              15
390
0
  6
Continuous
 62
               7
100
AcDbVertex
100
AcDb2dVertex
 10
-1546.4100459925021
 20
-860.81445724728383
 30
0.0
  0
VERTEX
  5
9F
100
AcDbEntity
  8
寸法
370
              15
390
0
  6
Continuous
 62
               7
100
AcDbVertex
100
AcDb2dVertex
 10
-1576.4100459925021
 20
-860.81445724728383
 30
0.0
  0
SEQEND
  5
A0
100
AcDbEntity
  8
寸法
370
              15
390
0
  6
Continuous
 62
               7
  0
WIPEOUT
  5
A2
100
AcDbEntity
  8
寸法
370
              15
390
0
  6
Continuous
 62
               7
 92
        0
100
AcDbWipeout
 90
        0
 10
-1568.0675672342695
 20
-857.31445724728383
 30
0.0
 11
20.471841620039868
 21
0.0
 31
0.0
 12
0.0
 22
20.471841620039868
 32
0.0
 13
1.0
 23
1.0
340
0
 70
               7
280
               1
281
              50
282
              50
283
               0
360
0
 71
               2
 91
        5
 14
-0.5
 24
-0.5
 14
0.1350185899872491
 24
-0.5
 14
0.1350185899872491
 24
0.5
 14
-0.5
 24
0.5
 14
-0.5
 24
-0.5
  0
POLYLINE
  5
A3
100
AcDbEntity
  8
寸法
370
              15
390
0
  6
Continuous
 62
               7
100
AcDb2dPolyline
 66
               1
 10
0.0
 20
0.0
 30
0.0
 70
               1
 75
               5
  0
VERTEX
  5
A4
100
AcDbEntity
  8
寸法
370
              15
390
0
  6
Continuous
 62
               7
100
AcDbVertex
100
AcDb2dVertex
 10
-1568.0675672342695
 20
-836.84261562724396
 30
0.0
  0
VERTEX
  5
A5
100
AcDbEntity
  8
寸法
370
              15
390
0
  6
Continuous
 62
               7
100
AcDbVertex
100
AcDb2dVertex
 10
-1555.0675672342695
 20
-836.84261562724396
 30
0.0
  0
VERTEX
  5
A6
100
AcDbEntity
  8
寸法
370
              15
390
0
  6
Continuous
 62
               7
100
AcDbVertex
100
AcDb2dVertex
 10
-1555.0675672342695
 20
-857.31445724728383
 30
0.0
  0
VERTEX
  5
A7
100
AcDbEntity
  8
寸法
370
              15
390
0
  6
Continuous
 62
               7
100
AcDbVertex
100
AcDb2dVertex
 10
-1568.0675672342695
 20
-857.31445724728383
 30
0.0
  0
SEQEND
  5
A8
100
AcDbEntity
  8
寸法
370
              15
390
0
  6
Continuous
 62
               7
  0
LINE
  5
AA
100
AcDbEntity
  8
一般
370
              18
390
0
  6
Continuous
 62
               7
100
AcDbLine
 10
-1499.0253363192182
 20
-681.87343901655277
 30
0.0
 11
-1525.0253363192182
 21
-681.87343901655277
 31
0.0
  0
LINE
  5
AB
100
AcDbEntity
  8
一般
370
              18
390
0
  6
Continuous
 62
               7
100
AcDbLine
 10
-1525.0253363192182
 20
-761.87343901655277
 30
0.0
 11
-1548.0253363192182
 21
-761.87343901655277
 31
0.0
  0
POLYLINE
  5
AC
100
AcDbEntity
  8
一般
370
               5
390
0
  6
Continuous
 62
               7
100
AcDb2dPolyline
 66
               1
 10
0.0
 20
0.0
 30
0.0
 70
               1
 75
               5
  0
VERTEX
  5
AD
100
AcDbEntity
  8
一般
370
               5
390
0
  6
Continuous
 62
               7
100
AcDbVertex
100
AcDb2dVertex
 10
-1444.8404178840303
 20
1184.1422866795356
 30
0.0
  0
VERTEX
  5
AE
100
AcDbEntity
  8
一般
370
               5
390
0
  6
Continuous
 62
               7
100
AcDbVertex
100
AcDb2dVertex
 10
-1442.8404178840303
 20
1184.1422866795356
 30
0.0
  0
VERTEX
  5
AF
100
AcDbEntity
  8
一般
370
               5
390
0
  6
Continuous
 62
               7
100
AcDbVertex
100
AcDb2dVertex
 10
-1442.8404178840303
 20
-585.85771332046465
 30
0.0
  0
VERTEX
  5
B0
100
AcDbEntity
  8
一般
370
               5
390
0
  6
Continuous
 62
               7
100
AcDbVertex
100
AcDb2dVertex
 10
-1444.8404178840303
 20
-585.85771332046465
 30
0.0
  0
SEQEND
  5
B1
100
AcDbEntity
  8
一般
370
               5
390
0
  6
Continuous
 62
               7
  0
POLYLINE
  5
B3
100
AcDbEntity
  8
一般
370
              18
390
0
  6
Continuous
 62
               7
100
AcDb2dPolyline
 66
               1
 10
0.0
 20
0.0
 30
0.0
 70
               1
 75
               5
  0
VERTEX
  5
B4
100
AcDbEntity
  8
一般
370
              18
390
0
  6
Continuous
 62
               7
100
AcDbVertex
100
AcDb2dVertex
 10
-741.58583204430624
 20
2317.2289017580574
 30
0.0
  0
VERTEX
  5
B5
100
AcDbEntity
  8
一般
370
              18
390
0
  6
Continuous
 62
               7
100
AcDbVertex
100
AcDb2dVertex
 10
14.414167955693756
 20
2317.2289017580574
 30
0.0
  0
VERTEX
  5
B6
100
AcDbEntity
  8
一般
370
              18
390
0
  6
Continuous
 62
               7
100
AcDbVertex
100
AcDb2dVertex
 10
14.414167955693756
 20
1762.2289017580651
 30
0.0
  0
VERTEX
  5
B7
100
AcDbEntity
  8
一般
370
              18
390
0
  6
Continuous
 62
               7
100
AcDbVertex
100
AcDb2dVertex
 10
-741.58583204430624
 20
1762.2289017580651
 30
0.0
  0
SEQEND
  5
B8
100
AcDbEntity
  8
一般
370
              18
390
0
  6
Continuous
 62
               7
  0
POLYLINE
  5
BA
100
AcDbEntity
  8
一般
370
              15
390
0
  6
Continuous
 62
               7
100
AcDb2dPolyline
 66
               1
 10
0.0
 20
0.0
 30
0.0
 70
               1
 75
               5
  0
VERTEX
  5
BB
100
AcDbEntity
  8
一般
370
              15
390
0
  6
Continuous
 62
               7
100
AcDbVertex
100
AcDb2dVertex
 10
-738.52827986142393
 20
1762.2336791684193
 30
0.0
  0
VERTEX
  5
BC
100
AcDbEntity
  8
一般
370
              15
390
0
  6
Continuous
 62
               7
100
AcDbVertex
100
AcDb2dVertex
 10
11.471720138576075
 20
1762.2336791684193
 30
0.0
  0
VERTEX
  5
BD
100
AcDbEntity
  8
一般
370
              15
390
0
  6
Continuous
 62
               7
100
AcDbVertex
100
AcDb2dVertex
 10
11.471720138576075
 20
1741.2336791684197
 30
0.0
  0
VERTEX
  5
BE
100
AcDbEntity
  8
一般
370
              15
390
0
  6
Continuous
 62
               7
100
AcDbVertex
100
AcDb2dVertex
 10
-738.52827986142393
 20
1741.2336791684197
 30
0.0
  0
SEQEND
  5
BF
100
AcDbEntity
  8
一般
370
              15
390
0
  6
Continuous
 62
               7
  0
POLYLINE
  5
C1
100
AcDbEntity
  8
一般
370
              15
390
0
  6
Continuous
 62
               7
100
AcDb2dPolyline
 66
               1
 10
0.0
 20
0.0
 30
0.0
 70
               1
 75
               5
  0
VERTEX
  5
C2
100
AcDbEntity
  8
一般
370
              15
390
0
  6
Continuous
 62
               7
100
AcDbVertex
100
AcDb2dVertex
 10
-738.52827986142393
 20
1741.2336791684197
 30
0.0
  0
VERTEX
  5
C3
100
AcDbEntity
  8
一般
370
              15
390
0
  6
Continuous
 62
               7
100
AcDbVertex
100
AcDb2dVertex
 10
11.471720138576075
 20
1741.2336791684197
 30
0.0
  0
VERTEX
  5
C4
100
AcDbEntity
  8
一般
370
              15
390
0
  6
Continuous
 62
               7
100
AcDbVertex
100
AcDb2dVertex
 10
11.471720138576075
 20
1711.2336791684202
 30
0.0
  0
VERTEX
  5
C5
100
AcDbEntity
  8
一般
370
              15
390
0
  6
Continuous
 62
               7
100
AcDbVertex
100
AcDb2dVertex
 10
-738.52827986142393
 20
1711.2336791684202
 30
0.0
  0
SEQEND
  5
C6
100
AcDbEntity
  8
一般
370
              15
390
0
  6
Continuous
 62
               7
  0
POLYLINE
  5
C8
100
AcDbEntity
  8
一般
370
              18
390
0
  6
Continuous
 62
               7
100
AcDb2dPolyline
 66
               1
 10
0.0
 20
0.0
 30
0.0
 70
               1
 75
               5
  0
VERTEX
  5
C9
100
AcDbEntity
  8
一般
370
              18
390
0
  6
Continuous
 62
               7
100
AcDbVertex
100
AcDb2dVertex
 10
-741.58583204430624
 20
1264.1265609834472
 30
0.0
  0
VERTEX
  5
CA
100
AcDbEntity
  8
一般
370
              18
390
0
  6
Continuous
 62
               7
100
AcDbVertex
100
AcDb2dVertex
 10
14.414167955693756
 20
1264.1265609834472
 30
0.0
  0
VERTEX
  5
CB
100
AcDbEntity
  8
一般
370
              18
390
0
  6
Continuous
 62
               7
100
AcDbVertex
100
AcDb2dVertex
 10
14.414167955693756
 20
-836.87343901655277
 30
0.0
  0
VERTEX
  5
CC
100
AcDbEntity
  8
一般
370
              18
390
0
  6
Continuous
 62
               7
100
AcDbVertex
100
AcDb2dVertex
 10
-741.58583204430624
 20
-836.87343901655277
 30
0.0
  0
SEQEND
  5
CD
100
AcDbEntity
  8
一般
370
              18
390
0
  6
Continuous
 62
               7
  0
LINE
  5
CF
100
AcDbEntity
  8
一般
370
              18
390
0
  6
Continuous
 62
               7
100
AcDbLine
 10
388.99183733034033
 20
-586.89850562738388
 30
0.0
 11
943.99183733034033
 21
-586.89850562738388
 31
0.0
  0
LINE
  5
D0
100
AcDbEntity
  8
一般
370
              18
390
0
  6
Continuous
 62
               7
100
AcDbLine
 10
-741.54684567657569
 20
-586.89850562738388
 30
0.0
 11
-138.54684567657614
 21
-586.89850562738388
 31
0.0
  0
LINE
  5
D1
100
AcDbEntity
  8
一般
370
              18
390
0
  6
Continuous
 62
               7
100
AcDbLine
 10
-741.54684567657569
 20
-681.89850562738388
 30
0.0
 11
-138.54684567657614
 21
-681.89850562738388
 31
0.0
  0
LINE
  5
D2
100
AcDbEntity
  8
一般
370
              18
390
0
  6
Continuous
 62
               7
100
AcDbLine
 10
-741.54684567657569
 20
-761.89850562738388
 30
0.0
 11
14.453154323424769
 21
-761.89850562738388
 31
0.0
  0
POLYLINE
  5
D3
100
AcDbEntity
  8
寸法
370
              15
390
0
  6
Continuous
 62
               7
100
AcDb2dPolyline
 66
               1
 10
0.0
 20
0.0
 30
0.0
 70
               1
 75
               5
  0
VERTEX
  5
D4
100
AcDbEntity
  8
寸法
370
              15
390
0
  6
Continuous
 62
               7
100
AcDbVertex
100
AcDb2dVertex
 10
-728.5705057800601
 20
-857.31445724728383
 30
0.0
  0
VERTEX
  5
D5
100
AcDbEntity
  8
寸法
370
              15
390
0
  6
Continuous
 62
               7
100
AcDbVertex
100
AcDb2dVertex
 10
-698.5705057800601
 20
-857.31445724728383
 30
0.0
  0
VERTEX
  5
D6
100
AcDbEntity
  8
寸法
370
              15
390
0
  6
Continuous
 62
               7
100
AcDbVertex
100
AcDb2dVertex
 10
-698.5705057800601
 20
-860.81445724728383
 30
0.0
  0
VERTEX
  5
D7
100
AcDbEntity
  8
寸法
370
              15
390
0
  6
Continuous
 62
               7
100
AcDbVertex
100
AcDb2dVertex
 10
-728.5705057800601
 20
-860.81445724728383
 30
0.0
  0
SEQEND
  5
D8
100
AcDbEntity
  8
寸法
370
              15
390
0
  6
Continuous
 62
               7
  0
WIPEOUT
  5
DA
100
AcDbEntity
  8
寸法
370
              15
390
0
  6
Continuous
 62
               7
 92
        0
100
AcDbWipeout
 90
        0
 10
-720.22802702182753
 20
-857.31445724728383
 30
0.0
 11
20.471841620039868
 21
0.0
 31
0.0
 12
0.0
 22
20.471841620039868
 32
0.0
 13
1.0
 23
1.0
340
0
 70
               7
280
               1
281
              50
282
              50
283
               0
360
0
 71
               2
 91
        5
 14
-0.5
 24
-0.5
 14
0.1350185899872491
 24
-0.5
 14
0.1350185899872491
 24
0.5
 14
-0.5
 24
0.5
 14
-0.5
 24
-0.5
  0
POLYLINE
  5
DB
100
AcDbEntity
  8
寸法
370
              15
390
0
  6
Continuous
 62
               7
100
AcDb2dPolyline
 66
               1
 10
0.0
 20
0.0
 30
0.0
 70
               1
 75
               5
  0
VERTEX
  5
DC
100
AcDbEntity
  8
寸法
370
              15
390
0
  6
Continuous
 62
               7
100
AcDbVertex
100
AcDb2dVertex
 10
-720.22802702182753
 20
-836.84261562724396
 30
0.0
  0
VERTEX
  5
DD
100
AcDbEntity
  8
寸法
370
              15
390
0
  6
Continuous
 62
               7
100
AcDbVertex
100
AcDb2dVertex
 10
-707.22802702182753
 20
-836.84261562724396
 30
0.0
  0
VERTEX
  5
DE
100
AcDbEntity
  8
寸法
370
              15
390
0
  6
Continuous
 62
               7
100
AcDbVertex
100
AcDb2dVertex
 10
-707.22802702182753
 20
-857.31445724728383
 30
0.0
  0
VERTEX
  5
DF
100
AcDbEntity
  8
寸法
370
              15
390
0
  6
Continuous
 62
               7
100
AcDbVertex
100
AcDb2dVertex
 10
-720.22802702182753
 20
-857.31445724728383
 30
0.0
  0
SEQEND
  5
E0
100
AcDbEntity
  8
寸法
370
              15
390
0
  6
Continuous
 62
               7
  0
POLYLINE
  5
E2
100
AcDbEntity
  8
寸法
370
              15
390
0
  6
Continuous
 62
               7
100
AcDb2dPolyline
 66
               1
 10
0.0
 20
0.0
 30
0.0
 70
               1
 75
               5
  0
VERTEX
  5
E3
100
AcDbEntity
  8
寸法
370
              15
390
0
  6
Continuous
 62
               7
100
AcDbVertex
100
AcDb2dVertex
 10
-28.50978339816902
 20
-857.31445724728383
 30
0.0
  0
VERTEX
  5
E4
100
AcDbEntity
  8
寸法
370
              15
390
0
  6
Continuous
 62
               7
100
AcDbVertex
100
AcDb2dVertex
 10
1.4902166018309799
 20
-857.31445724728383
 30
0.0
  0
VERTEX
  5
E5
100
AcDbEntity
  8
寸法
370
              15
390
0
  6
Continuous
 62
               7
100
AcDbVertex
100
AcDb2dVertex
 10
1.4902166018309799
 20
-860.81445724728383
 30
0.0
  0
VERTEX
  5
E6
100
AcDbEntity
  8
寸法
370
              15
390
0
  6
Continuous
 62
               7
100
AcDbVertex
100
AcDb2dVertex
 10
-28.50978339816902
 20
-860.81445724728383
 30
0.0
  0
SEQEND
  5
E7
100
AcDbEntity
  8
寸法
370
              15
390
0
  6
Continuous
 62
               7
  0
WIPEOUT
  5
E9
100
AcDbEntity
  8
寸法
370
              15
390
0
  6
Continuous
 62
               7
 92
        0
100
AcDbWipeout
 90
        0
 10
-20.167304639936674
 20
-857.31445724728383
 30
0.0
 11
20.471841620039868
 21
0.0
 31
0.0
 12
0.0
 22
20.471841620039868
 32
0.0
 13
1.0
 23
1.0
340
0
 70
               7
280
               1
281
              50
282
              50
283
               0
360
0
 71
               2
 91
        5
 14
-0.5
 24
-0.5
 14
0.1350185899872491
 24
-0.5
 14
0.1350185899872491
 24
0.5
 14
-0.5
 24
0.5
 14
-0.5
 24
-0.5
  0
POLYLINE
  5
EA
100
AcDbEntity
  8
寸法
370
              15
390
0
  6
Continuous
 62
               7
100
AcDb2dPolyline
 66
               1
 10
0.0
 20
0.0
 30
0.0
 70
               1
 75
               5
  0
VERTEX
  5
EB
100
AcDbEntity
  8
寸法
370
              15
390
0
  6
Continuous
 62
               7
100
AcDbVertex
100
AcDb2dVertex
 10
-20.167304639936674
 20
-836.84261562724396
 30
0.0
  0
VERTEX
  5
EC
100
AcDbEntity
  8
寸法
370
              15
390
0
  6
Continuous
 62
               7
100
AcDbVertex
100
AcDb2dVertex
 10
-7.167304639936674
 20
-836.84261562724396
 30
0.0
  0
VERTEX
  5
ED
100
AcDbEntity
  8
寸法
370
              15
390
0
  6
Continuous
 62
               7
100
AcDbVertex
100
AcDb2dVertex
 10
-7.167304639936674
 20
-857.31445724728383
 30
0.0
  0
VERTEX
  5
EE
100
AcDbEntity
  8
寸法
370
              15
390
0
  6
Continuous
 62
               7
100
AcDbVertex
100
AcDb2dVertex
 10
-20.167304639936674
 20
-857.31445724728383
 30
0.0
  0
SEQEND
  5
EF
100
AcDbEntity
  8
寸法
370
              15
390
0
  6
Continuous
 62
               7
  0
LINE
  5
F1
100
AcDbEntity
  8
一般
370
               5
390
0
  6
STYLE_06
 62
               7
100
AcDbLine
 10
-741.55961807435415
 20
1183.7922866795429
 30
0.0
 11
-138.75961807435488
 21
298.99228667954412
 31
0.0
  0
LINE
  5
F2
100
AcDbEntity
  8
一般
370
               5
390
0
  6
STYLE_06
 62
               7
100
AcDbLine
 10
-138.75961807435442
 20
298.79228667954408
 30
0.0
 11
-741.55961807435369
 21
-586.00771332046452
 31
0.0
  0
LINE
  5
F3
100
AcDbEntity
  8
一般
370
              18
390
0
  6
Continuous
 62
               7
100
AcDbLine
 10
388.99183733034033
 20
-586.89850562738388
 30
0.0
 11
388.99183733034033
 21
1264.126560983455
 31
0.0
  0
LINE
  5
F4
100
AcDbEntity
  8
一般
370
              18
390
0
  6
Continuous
 62
               7
100
AcDbLine
 10
388.99183733034033
 20
1264.126560983455
 30
0.0
 11
943.99183733034033
 21
1264.126560983455
 31
0.0
  0
POLYLINE
  5
F5
100
AcDbEntity
  8
寸法
370
              15
390
0
  6
STYLE_05
 62
               7
100
AcDb2dPolyline
 66
               1
 10
0.0
 20
0.0
 30
0.0
 70
               1
 75
               5
  0
VERTEX
  5
F6
100
AcDbEntity
  8
寸法
370
              15
390
0
  6
STYLE_05
 62
               7
100
AcDbVertex
100
AcDb2dVertex
 10
904.0068479432025
 20
1251.9922866795428
 30
0.0
  0
VERTEX
  5
F7
100
AcDbEntity
  8
寸法
370
              15
390
0
  6
STYLE_05
 62
               7
100
AcDbVertex
100
AcDb2dVertex
 10
944.20709052908387
 20
1251.9922866795428
 30
0.0
  0
VERTEX
  5
F8
100
AcDbEntity
  8
寸法
370
              15
390
0
  6
STYLE_05
 62
               7
100
AcDbVertex
100
AcDb2dVertex
 10
944.20709052908387
 20
1204.8261392382287
 30
0.0
  0
VERTEX
  5
F9
100
AcDbEntity
  8
寸法
370
              15
390
0
  6
STYLE_05
 62
               7
100
AcDbVertex
100
AcDb2dVertex
 10
904.0068479432025
 20
1204.8261392382287
 30
0.0
  0
SEQEND
  5
FA
100
AcDbEntity
  8
寸法
370
              15
390
0
  6
STYLE_05
 62
               7
  0
LINE
  5
FC
100
AcDbEntity
  8
一般
370
              18
390
0
  6
Continuous
 62
               7
100
AcDbLine
 10
943.99183733034033
 20
-586.89850562738388
 30
0.0
 11
943.99183733034033
 21
1264.126560983455
 31
0.0
  0
POLYLINE
  5
FD
100
AcDbEntity
  8
一般
370
              15
390
0
  6
Continuous
 62
               7
100
AcDb2dPolyline
 66
               1
 10
0.0
 20
0.0
 30
0.0
 70
               1
 75
               5
  0
VERTEX
  5
FE
100
AcDbEntity
  8
一般
370
              15
390
0
  6
Continuous
 62
               7
100
AcDbVertex
100
AcDb2dVertex
 10
943.98760343153344
 20
1184.1422866795356
 30
0.0
  0
VERTEX
  5
FF
100
AcDbEntity
  8
一般
370
              15
390
0
  6
Continuous
 62
               7
100
AcDbVertex
100
AcDb2dVertex
 10
964.98760343153344
 20
1184.1422866795356
 30
0.0
  0
VERTEX
  5
100
100
AcDbEntity
  8
一般
370
              15
390
0
  6
Continuous
 62
               7
100
AcDbVertex
100
AcDb2dVertex
 10
964.98760343153344
 20
-562.85771332046465
 30
0.0
  0
VERTEX
  5
101
100
AcDbEntity
  8
一般
370
              15
390
0
  6
Continuous
 62
               7
100
AcDbVertex
100
AcDb2dVertex
 10
943.98760343153344
 20
-562.85771332046465
 30
0.0
  0
SEQEND
  5
102
100
AcDbEntity
  8
一般
370
              15
390
0
  6
Continuous
 62
               7
  0
POLYLINE
  5
104
100
AcDbEntity
  8
一般
370
              15
390
0
  6
Continuous
 62
               7
100
AcDb2dPolyline
 66
               1
 10
0.0
 20
0.0
 30
0.0
 70
               1
 75
               5
  0
VERTEX
  5
105
100
AcDbEntity
  8
一般
370
              15
390
0
  6
Continuous
 62
               7
100
AcDbVertex
100
AcDb2dVertex
 10
964.98760343153344
 20
1184.1422866795356
 30
0.0
  0
VERTEX
  5
106
100
AcDbEntity
  8
一般
370
              15
390
0
  6
Continuous
 62
               7
100
AcDbVertex
100
AcDb2dVertex
 10
994.9876034315339
 20
1184.1422866795356
 30
0.0
  0
VERTEX
  5
107
100
AcDbEntity
  8
一般
370
              15
390
0
  6
Continuous
 62
               7
100
AcDbVertex
100
AcDb2dVertex
 10
994.9876034315339
 20
-585.85771332046465
 30
0.0
  0
VERTEX
  5
108
100
AcDbEntity
  8
一般
370
              15
390
0
  6
Continuous
 62
               7
100
AcDbVertex
100
AcDb2dVertex
 10
964.98760343153344
 20
-585.85771332046465
 30
0.0
  0
SEQEND
  5
109
100
AcDbEntity
  8
一般
370
              15
390
0
  6
Continuous
 62
               7
  0
POLYLINE
  5
10B
100
AcDbEntity
  8
一般
370
               5
390
0
  6
Continuous
 62
               7
100
AcDb2dPolyline
 66
               1
 10
0.0
 20
0.0
 30
0.0
 70
               1
 75
               5
  0
VERTEX
  5
10C
100
AcDbEntity
  8
一般
370
               5
390
0
  6
Continuous
 62
               7
100
AcDbVertex
100
AcDb2dVertex
 10
994.92894043821343
 20
1184.1422866795356
 30
0.0
  0
VERTEX
  5
10D
100
AcDbEntity
  8
一般
370
               5
390
0
  6
Continuous
 62
               7
100
AcDbVertex
100
AcDb2dVertex
 10
996.92894043821343
 20
1184.1422866795356
 30
0.0
  0
VERTEX
  5
10E
100
AcDbEntity
  8
一般
370
               5
390
0
  6
Continuous
 62
               7
100
AcDbVertex
100
AcDb2dVertex
 10
996.92894043821343
 20
-585.85771332046465
 30
0.0
  0
VERTEX
  5
10F
100
AcDbEntity
  8
一般
370
               5
390
0
  6
Continuous
 62
               7
100
AcDbVertex
100
AcDb2dVertex
 10
994.92894043821343
 20
-585.85771332046465
 30
0.0
  0
SEQEND
  5
110
100
AcDbEntity
  8
一般
370
               5
390
0
  6
Continuous
 62
               7
  0
WIPEOUT
  5
112
100
AcDbEntity
  8
一般
370
              18
390
0
  6
Continuous
 62
               7
 92
        0
100
AcDbWipeout
 90
        0
 10
-741.59680799594753
 20
-758.05537926097986
 30
0.0
 11
2029.0
 21
0.0
 31
0.0
 12
0.0
 22
2029.0
 32
0.0
 13
1.0
 23
1.0
340
0
 70
               7
280
               1
281
              50
282
              50
283
               0
360
0
 71
               2
 91
        5
 14
-0.5
 24
-0.5
 14
-0.1274026614095614
 24
-0.5
 14
-0.1274026614095614
 24
0.5
 14
-0.5
 24
0.5
 14
-0.5
 24
-0.5
  0
POLYLINE
  5
113
100
AcDbEntity
  8
一般
370
              18
390
0
  6
Continuous
 62
               7
100
AcDb2dPolyline
 66
               1
 10
0.0
 20
0.0
 30
0.0
 70
               1
 75
               5
  0
VERTEX
  5
114
100
AcDbEntity
  8
一般
370
              18
390
0
  6
Continuous
 62
               7
100
AcDbVertex
100
AcDb2dVertex
 10
-741.59680799594753
 20
1270.9446207390201
 30
0.0
  0
VERTEX
  5
115
100
AcDbEntity
  8
一般
370
              18
390
0
  6
Continuous
 62
               7
100
AcDbVertex
100
AcDb2dVertex
 10
14.403192004052471
 20
1270.9446207390201
 30
0.0
  0
VERTEX
  5
116
100
AcDbEntity
  8
一般
370
              18
390
0
  6
Continuous
 62
               7
100
AcDbVertex
100
AcDb2dVertex
 10
14.403192004052471
 20
-758.05537926097986
 30
0.0
  0
VERTEX
  5
117
100
AcDbEntity
  8
一般
370
              18
390
0
  6
Continuous
 62
               7
100
AcDbVertex
100
AcDb2dVertex
 10
-741.59680799594753
 20
-758.05537926097986
 30
0.0
  0
SEQEND
  5
118
100
AcDbEntity
  8
一般
370
              18
390
0
  6
Continuous
 62
               7
  0
WIPEOUT
  5
11A
100
AcDbEntity
  8
一般
370
              15
390
0
  6
Continuous
 62
               7
 92
        0
100
AcDbWipeout
 90
        0
 10
997.10006087930833
 20
-758.05537926097986
 30
0.0
 11
2029.0
 21
0.0
 31
0.0
 12
0.0
 22
2029.0
 32
0.0
 13
1.0
 23
1.0
340
0
 70
               7
280
               1
281
              50
282
              50
283
               0
360
0
 71
               2
 91
        5
 14
-0.5
 24
-0.5
 14
-0.4906357811729916
 24
-0.5
 14
-0.4906357811729916
 24
0.5
 14
-0.5
 24
0.5
 14
-0.5
 24
-0.5
  0
POLYLINE
  5
11B
100
AcDbEntity
  8
一般
370
              15
390
0
  6
Continuous
 62
               7
100
AcDb2dPolyline
 66
               1
 10
0.0
 20
0.0
 30
0.0
 70
               1
 75
               5
  0
VERTEX
  5
11C
100
AcDbEntity
  8
一般
370
              15
390
0
  6
Continuous
 62
               7
100
AcDbVertex
100
AcDb2dVertex
 10
997.10006087930833
 20
1270.9446207390201
 30
0.0
  0
VERTEX
  5
11D
100
AcDbEntity
  8
一般
370
              15
390
0
  6
Continuous
 62
               7
100
AcDbVertex
100
AcDb2dVertex
 10
1016.1000608793083
 20
1270.9446207390201
 30
0.0
  0
VERTEX
  5
11E
100
AcDbEntity
  8
一般
370
              15
390
0
  6
Continuous
 62
               7
100
AcDbVertex
100
AcDb2dVertex
 10
1016.1000608793083
 20
-758.05537926097986
 30
0.0
  0
VERTEX
  5
11F
100
AcDbEntity
  8
一般
370
              15
390
0
  6
Continuous
 62
               7
100
AcDbVertex
100
AcDb2dVertex
 10
997.10006087930833
 20
-758.05537926097986
 30
0.0
  0
SEQEND
  5
120
100
AcDbEntity
  8
一般
370
              15
390
0
  6
Continuous
 62
               7
  0
WIPEOUT
  5
122
100
AcDbEntity
  8
寸法
370
              15
390
0
  6
Continuous
 62
               7
 92
        0
100
AcDbWipeout
 90
        0
 10
944.20709052908433
 20
1204.9922866795428
 30
0.0
 11
50.836575494950466
 21
0.0
 31
0.0
 12
0.0
 22
50.836575494950466
 32
0.0
 13
1.0
 23
1.0
340
0
 70
               7
280
               1
281
              50
282
              50
283
               0
360
0
 71
               2
 91
        5
 14
-0.5
 24
-0.4245311971233872
 14
0.5
 24
-0.4245311971233872
 14
0.5
 24
0.5
 14
-0.5
 24
0.5
 14
-0.5
 24
-0.4245311971233872
  0
POLYLINE
  5
123
100
AcDbEntity
  8
寸法
370
              15
390
0
  6
Continuous
 62
               7
100
AcDb2dPolyline
 66
               1
 10
0.0
 20
0.0
 30
0.0
 70
               1
 75
               5
  0
VERTEX
  5
124
100
AcDbEntity
  8
寸法
370
              15
390
0
  6
Continuous
 62
               7
100
AcDbVertex
100
AcDb2dVertex
 10
944.20709052908433
 20
1251.9922866795428
 30
0.0
  0
VERTEX
  5
125
100
AcDbEntity
  8
寸法
370
              15
390
0
  6
Continuous
 62
               7
100
AcDbVertex
100
AcDb2dVertex
 10
995.04366602403479
 20
1251.9922866795428
 30
0.0
  0
VERTEX
  5
126
100
AcDbEntity
  8
寸法
370
              15
390
0
  6
Continuous
 62
               7
100
AcDbVertex
100
AcDb2dVertex
 10
995.04366602403479
 20
1204.9922866795428
 30
0.0
  0
VERTEX
  5
127
100
AcDbEntity
  8
寸法
370
              15
390
0
  6
Continuous
 62
               7
100
AcDbVertex
100
AcDb2dVertex
 10
944.20709052908433
 20
1204.9922866795428
 30
0.0
  0
SEQEND
  5
128
100
AcDbEntity
  8
寸法
370
              15
390
0
  6
Continuous
 62
               7
  0
WIPEOUT
  5
12A
100
AcDbEntity
  8
寸法
370
              15
390
0
  6
Continuous
 62
               7
 92
        0
100
AcDbWipeout
 90
        0
 10
974.94383323431839
 20
1184.0966424980693
 30
0.0
 11
54.999999999999091
 21
0.0
 31
0.0
 12
0.0
 22
54.999999999999091
 32
0.0
 13
1.0
 23
1.0
340
0
 70
               7
280
               1
281
              50
282
              50
283
               0
360
0
 71
               2
 91
        5
 14
-0.5
 24
-0.5
 14
-0.1363636363636304
 24
-0.5
 14
-0.1363636363636304
 24
0.5
 14
-0.5
 24
0.5
 14
-0.5
 24
-0.5
  0
POLYLINE
  5
12B
100
AcDbEntity
  8
寸法
370
              15
390
0
  6
Continuous
 62
               7
100
AcDb2dPolyline
 66
               1
 10
0.0
 20
0.0
 30
0.0
 70
               1
 75
               5
  0
VERTEX
  5
12C
100
AcDbEntity
  8
寸法
370
              15
390
0
  6
Continuous
 62
               7
100
AcDbVertex
100
AcDb2dVertex
 10
974.94383323431839
 20
1239.0966424980684
 30
0.0
  0
VERTEX
  5
12D
100
AcDbEntity
  8
寸法
370
              15
390
0
  6
Continuous
 62
               7
100
AcDbVertex
100
AcDb2dVertex
 10
994.94383323431839
 20
1239.0966424980684
 30
0.0
  0
VERTEX
  5
12E
100
AcDbEntity
  8
寸法
370
              15
390
0
  6
Continuous
 62
               7
100
AcDbVertex
100
AcDb2dVertex
 10
994.94383323431839
 20
1184.0966424980693
 30
0.0
  0
VERTEX
  5
12F
100
AcDbEntity
  8
寸法
370
              15
390
0
  6
Continuous
 62
               7
100
AcDbVertex
100
AcDb2dVertex
 10
974.94383323431839
 20
1184.0966424980693
 30
0.0
  0
SEQEND
  5
130
100
AcDbEntity
  8
寸法
370
              15
390
0
  6
Continuous
 62
               7
  0
WIPEOUT
  5
132
100
AcDbEntity
  8
寸法
370
              15
390
0
  6
Continuous
 62
               7
 92
        0
100
AcDbWipeout
 90
        0
 10
-1495.8419313206621
 20
1204.9922866795428
 30
0.0
 11
50.836575494949557
 21
0.0
 31
0.0
 12
0.0
 22
50.836575494949557
 32
0.0
 13
1.0
 23
1.0
340
0
 70
               7
280
               1
281
              50
282
              50
283
               0
360
0
 71
               2
 91
        5
 14
-0.5
 24
-0.4245311971234037
 14
0.5
 24
-0.4245311971234037
 14
0.5
 24
0.5
 14
-0.5
 24
0.5
 14
-0.5
 24
-0.4245311971234037
  0
POLYLINE
  5
133
100
AcDbEntity
  8
寸法
370
              15
390
0
  6
Continuous
 62
               7
100
AcDb2dPolyline
 66
               1
 10
0.0
 20
0.0
 30
0.0
 70
               1
 75
               5
  0
VERTEX
  5
134
100
AcDbEntity
  8
寸法
370
              15
390
0
  6
Continuous
 62
               7
100
AcDbVertex
100
AcDb2dVertex
 10
-1495.8419313206621
 20
1251.9922866795428
 30
0.0
  0
VERTEX
  5
135
100
AcDbEntity
  8
寸法
370
              15
390
0
  6
Continuous
 62
               7
100
AcDbVertex
100
AcDb2dVertex
 10
-1445.0053558257125
 20
1251.9922866795428
 30
0.0
  0
VERTEX
  5
136
100
AcDbEntity
  8
寸法
370
              15
390
0
  6
Continuous
 62
               7
100
AcDbVertex
100
AcDb2dVertex
 10
-1445.0053558257125
 20
1204.9922866795428
 30
0.0
  0
VERTEX
  5
137
100
AcDbEntity
  8
寸法
370
              15
390
0
  6
Continuous
 62
               7
100
AcDbVertex
100
AcDb2dVertex
 10
-1495.8419313206621
 20
1204.9922866795428
 30
0.0
  0
SEQEND
  5
138
100
AcDbEntity
  8
寸法
370
              15
390
0
  6
Continuous
 62
               7
  0
POLYLINE
  5
13A
100
AcDbEntity
  8
寸法
370
              15
390
0
  6
STYLE_05
 62
               7
100
AcDb2dPolyline
 66
               1
 10
0.0
 20
0.0
 30
0.0
 70
               1
 75
               5
  0
VERTEX
  5
13B
100
AcDbEntity
  8
寸法
370
              15
390
0
  6
STYLE_05
 62
               7
100
AcDbVertex
100
AcDb2dVertex
 10
-1536.0421739065425
 20
1251.9922866795428
 30
0.0
  0
VERTEX
  5
13C
100
AcDbEntity
  8
寸法
370
              15
390
0
  6
STYLE_05
 62
               7
100
AcDbVertex
100
AcDb2dVertex
 10
-1495.8419313206621
 20
1251.9922866795428
 30
0.0
  0
VERTEX
  5
13D
100
AcDbEntity
  8
寸法
370
              15
390
0
  6
STYLE_05
 62
               7
100
AcDbVertex
100
AcDb2dVertex
 10
-1495.8419313206621
 20
1204.8261392382287
 30
0.0
  0
VERTEX
  5
13E
100
AcDbEntity
  8
寸法
370
              15
390
0
  6
STYLE_05
 62
               7
100
AcDbVertex
100
AcDb2dVertex
 10
-1536.0421739065425
 20
1204.8261392382287
 30
0.0
  0
SEQEND
  5
13F
100
AcDbEntity
  8
寸法
370
              15
390
0
  6
STYLE_05
 62
               7
  0
WIPEOUT
  5
141
100
AcDbEntity
  8
寸法
370
              15
390
0
  6
Continuous
 62
               7
 92
        0
100
AcDbWipeout
 90
        0
 10
-1464.9817232744088
 20
1184.0966424980693
 30
0.0
 11
54.999999999999091
 21
0.0
 31
0.0
 12
0.0
 22
54.999999999999091
 32
0.0
 13
1.0
 23
1.0
340
0
 70
               7
280
               1
281
              50
282
              50
283
               0
360
0
 71
               2
 91
        5
 14
-0.5
 24
-0.5
 14
-0.1363636363636262
 24
-0.5
 14
-0.1363636363636262
 24
0.5
 14
-0.5
 24
0.5
 14
-0.5
 24
-0.5
  0
POLYLINE
  5
142
100
AcDbEntity
  8
寸法
370
              15
390
0
  6
Continuous
 62
               7
100
AcDb2dPolyline
 66
               1
 10
0.0
 20
0.0
 30
0.0
 70
               1
 75
               5
  0
VERTEX
  5
143
100
AcDbEntity
  8
寸法
370
              15
390
0
  6
Continuous
 62
               7
100
AcDbVertex
100
AcDb2dVertex
 10
-1464.9817232744088
 20
1239.0966424980684
 30
0.0
  0
VERTEX
  5
144
100
AcDbEntity
  8
寸法
370
              15
390
0
  6
Continuous
 62
               7
100
AcDbVertex
100
AcDb2dVertex
 10
-1444.9817232744085
 20
1239.0966424980684
 30
0.0
  0
VERTEX
  5
145
100
AcDbEntity
  8
寸法
370
              15
390
0
  6
Continuous
 62
               7
100
AcDbVertex
100
AcDb2dVertex
 10
-1444.9817232744085
 20
1184.0966424980693
 30
0.0
  0
VERTEX
  5
146
100
AcDbEntity
  8
寸法
370
              15
390
0
  6
Continuous
 62
               7
100
AcDbVertex
100
AcDb2dVertex
 10
-1464.9817232744088
 20
1184.0966424980693
 30
0.0
  0
SEQEND
  5
147
100
AcDbEntity
  8
寸法
370
              15
390
0
  6
Continuous
 62
               7
  0
POLYLINE
  5
149
100
AcDbEntity
  8
0
370
              15
390
0
  6
Continuous
 62
               7
100
AcDb2dPolyline
 66
               1
 10
0.0
 20
0.0
 30
0.0
 70
               1
 75
               5
  0
VERTEX
  5
14A
100
AcDbEntity
  8
0
370
              15
390
0
  6
Continuous
 62
               7
100
AcDbVertex
100
AcDb2dVertex
 10
-3178.9411100643797
 20
-596.85835467311608
 30
0.0
  0
VERTEX
  5
14B
100
AcDbEntity
  8
0
370
              15
390
0
  6
Continuous
 62
               7
100
AcDbVertex
100
AcDb2dVertex
 10
-2671.4055414655795
 20
-596.85835467311608
 30
0.0
  0
VERTEX
  5
14C
100
AcDbEntity
  8
0
370
              15
390
0
  6
Continuous
 62
               7
100
AcDbVertex
100
AcDb2dVertex
 10
-2671.4055414655795
 20
-671.85835467311608
 30
0.0
  0
VERTEX
  5
14D
100
AcDbEntity
  8
0
370
              15
390
0
  6
Continuous
 62
               7
100
AcDbVertex
100
AcDb2dVertex
 10
-3178.9411100643797
 20
-671.85835467311608
 30
0.0
  0
SEQEND
  5
14E
100
AcDbEntity
  8
0
370
              15
390
0
  6
Continuous
 62
               7
  0
POLYLINE
  5
150
100
AcDbEntity
  8
0
370
              15
390
0
  6
Continuous
 62
               7
100
AcDb2dPolyline
 66
               1
 10
0.0
 20
0.0
 30
0.0
 70
               1
 75
               5
  0
VERTEX
  5
151
100
AcDbEntity
  8
0
370
              15
390
0
  6
Continuous
 62
               7
100
AcDbVertex
100
AcDb2dVertex
 10
-2652.976678663264
 20
-586.85835467311608
 30
0.0
  0
VERTEX
  5
152
100
AcDbEntity
  8
0
370
              15
390
0
  6
Continuous
 62
               7
100
AcDbVertex
100
AcDb2dVertex
 10
-2442.976678663264
 20
-586.85835467311608
 30
0.0
  0
VERTEX
  5
153
100
AcDbEntity
  8
0
370
              15
390
0
  6
Continuous
 62
               7
100
AcDbVertex
100
AcDb2dVertex
 10
-2442.976678663264
 20
-656.85835467311608
 30
0.0
  0
VERTEX
  5
154
100
AcDbEntity
  8
0
370
              15
390
0
  6
Continuous
 62
               7
100
AcDbVertex
100
AcDb2dVertex
 10
-2652.976678663264
 20
-656.85835467311608
 30
0.0
  0
SEQEND
  5
155
100
AcDbEntity
  8
0
370
              15
390
0
  6
Continuous
 62
               7
  0
LINE
  5
157
100
AcDbEntity
  8
0
370
              15
390
0
  6
Continuous
 62
               7
100
AcDbLine
 10
-3178.90554146558
 20
-615.11019680858612
 30
0.0
 11
-2671.40554146558
 21
-615.11019680858612
 31
0.0
  0
LINE
  5
158
100
AcDbEntity
  8
0
370
              15
390
0
  6
Continuous
 62
               7
100
AcDbLine
 10
-3178.90554146558
 20
-633.86019680858612
 30
0.0
 11
-2671.40554146558
 21
-633.86019680858612
 31
0.0
  0
LINE
  5
159
100
AcDbEntity
  8
0
370
              15
390
0
  6
Continuous
 62
               7
100
AcDbLine
 10
-3179.0055414655799
 20
-652.61019680858612
 30
0.0
 11
-2671.40554146558
 21
-652.61019680858612
 31
0.0
  0
WIPEOUT
  5
15A
100
AcDbEntity
  8
0
370
              15
390
0
  6
Continuous
 62
               7
 92
        0
100
AcDbWipeout
 90
        0
 10
-2825.1523672325684
 20
-671.85835467311608
 30
0.0
 11
75.0
 21
0.0
 31
0.0
 12
0.0
 22
75.0
 32
0.0
 13
1.0
 23
1.0
340
0
 70
               7
280
               1
281
              50
282
              50
283
               0
360
0
 71
               2
 91
        5
 14
-0.5
 24
-0.5
 14
-0.3666666666666667
 24
-0.5
 14
-0.3666666666666667
 24
0.5
 14
-0.5
 24
0.5
 14
-0.5
 24
-0.5
  0
POLYLINE
  5
15B
100
AcDbEntity
  8
0
370
              15
390
0
  6
Continuous
 62
               7
100
AcDb2dPolyline
 66
               1
 10
0.0
 20
0.0
 30
0.0
 70
               1
 75
               5
  0
VERTEX
  5
15C
100
AcDbEntity
  8
0
370
              15
390
0
  6
Continuous
 62
               7
100
AcDbVertex
100
AcDb2dVertex
 10
-2825.1523672325684
 20
-596.85835467311608
 30
0.0
  0
VERTEX
  5
15D
100
AcDbEntity
  8
0
370
              15
390
0
  6
Continuous
 62
               7
100
AcDbVertex
100
AcDb2dVertex
 10
-2815.1523672325684
 20
-596.85835467311608
 30
0.0
  0
VERTEX
  5
15E
100
AcDbEntity
  8
0
370
              15
390
0
  6
Continuous
 62
               7
100
AcDbVertex
100
AcDb2dVertex
 10
-2815.1523672325684
 20
-671.85835467311608
 30
0.0
  0
VERTEX
  5
15F
100
AcDbEntity
  8
0
370
              15
390
0
  6
Continuous
 62
               7
100
AcDbVertex
100
AcDb2dVertex
 10
-2825.1523672325684
 20
-671.85835467311608
 30
0.0
  0
SEQEND
  5
160
100
AcDbEntity
  8
0
370
              15
390
0
  6
Continuous
 62
               7
  0
LINE
  5
162
100
AcDbEntity
  8
一般
370
              15
390
0
  6
Continuous
 62
               7
100
AcDbLine
 10
-3179.0673240343435
 20
-691.89850562738388
 30
0.0
 11
-2463.0283376666434
 21
-691.89850562738388
 31
0.0
  0
LINE
  5
163
100
AcDbEntity
  8
一般
370
              15
390
0
  6
Continuous
 62
               7
100
AcDbLine
 10
-3179.0283376666434
 20
-751.89850562738388
 30
0.0
 11
-2463.0283376666434
 21
-751.89850562738388
 31
0.0
  0
LINE
  5
164
100
AcDbEntity
  8
0
370
              15
390
0
  6
Continuous
 62
               7
100
AcDbLine
 10
-3179.0427990319886
 20
-691.95310947392454
 30
0.0
 11
-3179.0427990319886
 21
-751.95310947392454
 31
0.0
  0
LINE
  5
165
100
AcDbEntity
  8
0
370
              15
390
0
  6
Continuous
 62
               7
100
AcDbLine
 10
-2462.469015410602
 20
-691.95310947392454
 30
0.0
 11
-2462.469015410602
 21
-751.95310947392454
 31
0.0
  0
LINE
  5
166
100
AcDbEntity
  8
一般
370
              15
390
0
  6
Continuous
 62
               7
100
AcDbLine
 10
-3179.0283376666434
 20
-711.89850562738388
 30
0.0
 11
-2463.0283376666434
 21
-711.89850562738388
 31
0.0
  0
LINE
  5
167
100
AcDbEntity
  8
一般
370
              15
390
0
  6
Continuous
 62
               7
100
AcDbLine
 10
-3179.0283376666434
 20
-731.89850562738388
 30
0.0
 11
-2463.0283376666434
 21
-731.89850562738388
 31
0.0
  0
WIPEOUT
  5
168
100
AcDbEntity
  8
0
370
              15
390
0
  6
Continuous
 62
               7
 92
        0
100
AcDbWipeout
 90
        0
 10
-2825.6080270211623
 20
-752.11128285241648
 30
0.0
 11
60.0
 21
0.0
 31
0.0
 12
0.0
 22
60.0
 32
0.0
 13
1.0
 23
1.0
340
0
 70
               7
280
               1
281
              50
282
              50
283
               0
360
0
 71
               2
 91
        5
 14
-0.5
 24
-0.5
 14
-0.3333333333333334
 24
-0.5
 14
-0.3333333333333334
 24
0.5
 14
-0.5
 24
0.5
 14
-0.5
 24
-0.5
  0
POLYLINE
  5
169
100
AcDbEntity
  8
0
370
              15
390
0
  6
Continuous
 62
               7
100
AcDb2dPolyline
 66
               1
 10
0.0
 20
0.0
 30
0.0
 70
               1
 75
               5
  0
VERTEX
  5
16A
100
AcDbEntity
  8
0
370
              15
390
0
  6
Continuous
 62
               7
100
AcDbVertex
100
AcDb2dVertex
 10
-2825.6080270211623
 20
-692.11128285241648
 30
0.0
  0
VERTEX
  5
16B
100
AcDbEntity
  8
0
370
              15
390
0
  6
Continuous
 62
               7
100
AcDbVertex
100
AcDb2dVertex
 10
-2815.6080270211623
 20
-692.11128285241648
 30
0.0
  0
VERTEX
  5
16C
100
AcDbEntity
  8
0
370
              15
390
0
  6
Continuous
 62
               7
100
AcDbVertex
100
AcDb2dVertex
 10
-2815.6080270211623
 20
-752.11128285241648
 30
0.0
  0
VERTEX
  5
16D
100
AcDbEntity
  8
0
370
              15
390
0
  6
Continuous
 62
               7
100
AcDbVertex
100
AcDb2dVertex
 10
-2825.6080270211623
 20
-752.11128285241648
 30
0.0
  0
SEQEND
  5
16E
100
AcDbEntity
  8
0
370
              15
390
0
  6
Continuous
 62
               7
  0
WIPEOUT
  5
170
100
AcDbEntity
  8
寸法
370
              15
390
0
  6
Continuous
 62
               7
 92
        0
100
AcDbWipeout
 90
        0
 10
-2642.441110064422
 20
1204.9922866795428
 30
0.0
 11
188.12518006874097
 21
0.0
 31
0.0
 12
0.0
 22
188.12518006874097
 32
0.0
 13
1.0
 23
1.0
340
0
 70
               7
280
               1
281
              50
282
              50
283
               0
360
0
 71
               2
 91
        5
 14
-0.5
 24
0.2501663520915903
 14
0.5
 24
0.2501663520915903
 14
0.5
 24
0.5
 14
-0.5
 24
0.5
 14
-0.5
 24
0.2501663520915903
  0
POLYLINE
  5
171
100
AcDbEntity
  8
寸法
370
              15
390
0
  6
Continuous
 62
               7
100
AcDb2dPolyline
 66
               1
 10
0.0
 20
0.0
 30
0.0
 70
               1
 75
               5
  0
VERTEX
  5
172
100
AcDbEntity
  8
寸法
370
              15
390
0
  6
Continuous
 62
               7
100
AcDbVertex
100
AcDb2dVertex
 10
-2642.441110064422
 20
1251.9922866795428
 30
0.0
  0
VERTEX
  5
173
100
AcDbEntity
  8
寸法
370
              15
390
0
  6
Continuous
 62
               7
100
AcDbVertex
100
AcDb2dVertex
 10
-2454.315929995681
 20
1251.9922866795428
 30
0.0
  0
VERTEX
  5
174
100
AcDbEntity
  8
寸法
370
              15
390
0
  6
Continuous
 62
               7
100
AcDbVertex
100
AcDb2dVertex
 10
-2454.315929995681
 20
1204.9922866795428
 30
0.0
  0
VERTEX
  5
175
100
AcDbEntity
  8
寸法
370
              15
390
0
  6
Continuous
 62
               7
100
AcDbVertex
100
AcDb2dVertex
 10
-2642.441110064422
 20
1204.9922866795428
 30
0.0
  0
SEQEND
  5
176
100
AcDbEntity
  8
寸法
370
              15
390
0
  6
Continuous
 62
               7
  0
POLYLINE
  5
178
100
AcDbEntity
  8
0
370
              15
390
0
  6
Continuous
 62
               7
100
AcDb2dPolyline
 66
               1
 10
0.0
 20
0.0
 30
0.0
 70
               1
 75
               5
  0
VERTEX
  5
179
100
AcDbEntity
  8
0
370
              15
390
0
  6
Continuous
 62
               7
100
AcDbVertex
100
AcDb2dVertex
 10
-2653.1308942002679
 20
1264.1061515801075
 30
0.0
  0
VERTEX
  5
17A
100
AcDbEntity
  8
0
370
              15
390
0
  6
Continuous
 62
               7
100
AcDbVertex
100
AcDb2dVertex
 10
-2443.1308942002679
 20
1264.1061515801075
 30
0.0
  0
VERTEX
  5
17B
100
AcDbEntity
  8
0
370
              15
390
0
  6
Continuous
 62
               7
100
AcDbVertex
100
AcDb2dVertex
 10
-2443.1308942002679
 20
1194.1061515801071
 30
0.0
  0
VERTEX
  5
17C
100
AcDbEntity
  8
0
370
              15
390
0
  6
Continuous
 62
               7
100
AcDbVertex
100
AcDb2dVertex
 10
-2653.1308942002679
 20
1194.1061515801071
 30
0.0
  0
SEQEND
  5
17D
100
AcDbEntity
  8
0
370
              15
390
0
  6
Continuous
 62
               7
  0
POLYLINE
  5
17F
100
AcDbEntity
  8
0
370
              15
390
0
  6
Continuous
 62
               7
100
AcDb2dPolyline
 66
               1
 10
0.0
 20
0.0
 30
0.0
 70
               1
 75
               5
  0
VERTEX
  5
180
100
AcDbEntity
  8
0
370
              15
390
0
  6
Continuous
 62
               7
100
AcDbVertex
100
AcDb2dVertex
 10
-2646.1308942002679
 20
1257.1061515801071
 30
0.0
  0
VERTEX
  5
181
100
AcDbEntity
  8
0
370
              15
390
0
  6
Continuous
 62
               7
100
AcDbVertex
100
AcDb2dVertex
 10
-2450.1308942002679
 20
1257.1061515801071
 30
0.0
  0
VERTEX
  5
182
100
AcDbEntity
  8
0
370
              15
390
0
  6
Continuous
 62
               7
100
AcDbVertex
100
AcDb2dVertex
 10
-2450.1308942002679
 20
1201.1061515801071
 30
0.0
  0
VERTEX
  5
183
100
AcDbEntity
  8
0
370
              15
390
0
  6
Continuous
 62
               7
100
AcDbVertex
100
AcDb2dVertex
 10
-2646.1308942002679
 20
1201.1061515801071
 30
0.0
  0
SEQEND
  5
184
100
AcDbEntity
  8
0
370
              15
390
0
  6
Continuous
 62
               7
  0
WIPEOUT
  5
186
100
AcDbEntity
  8
寸法
370
              15
390
0
  6
Continuous
 62
               7
 92
        0
100
AcDbWipeout
 90
        0
 10
-2642.441110064422
 20
-645.22164558453733
 30
0.0
 11
188.12518006874097
 21
0.0
 31
0.0
 12
0.0
 22
188.12518006874097
 32
0.0
 13
1.0
 23
1.0
340
0
 70
               7
280
               1
281
              50
282
              50
283
               0
360
0
 71
               2
 91
        5
 14
-0.5
 24
0.2501663520915903
 14
0.5
 24
0.2501663520915903
 14
0.5
 24
0.5
 14
-0.5
 24
0.5
 14
-0.5
 24
0.2501663520915903
  0
POLYLINE
  5
187
100
AcDbEntity
  8
寸法
370
              15
390
0
  6
Continuous
 62
               7
100
AcDb2dPolyline
 66
               1
 10
0.0
 20
0.0
 30
0.0
 70
               1
 75
               5
  0
VERTEX
  5
188
100
AcDbEntity
  8
寸法
370
              15
390
0
  6
Continuous
 62
               7
100
AcDbVertex
100
AcDb2dVertex
 10
-2642.441110064422
 20
-598.22164558453733
 30
0.0
  0
VERTEX
  5
189
100
AcDbEntity
  8
寸法
370
              15
390
0
  6
Continuous
 62
               7
100
AcDbVertex
100
AcDb2dVertex
 10
-2454.315929995681
 20
-598.22164558453733
 30
0.0
  0
VERTEX
  5
18A
100
AcDbEntity
  8
寸法
370
              15
390
0
  6
Continuous
 62
               7
100
AcDbVertex
100
AcDb2dVertex
 10
-2454.315929995681
 20
-645.22164558453733
 30
0.0
  0
VERTEX
  5
18B
100
AcDbEntity
  8
寸法
370
              15
390
0
  6
Continuous
 62
               7
100
AcDbVertex
100
AcDb2dVertex
 10
-2642.441110064422
 20
-645.22164558453733
 30
0.0
  0
SEQEND
  5
18C
100
AcDbEntity
  8
寸法
370
              15
390
0
  6
Continuous
 62
               7
  0
CIRCLE
  5
18E
102
{ACAD_REACTORS
330
18F
102
}
100
AcDbEntity
  8
0
370
               5
390
0
  6
Continuous
 62
               7
100
AcDbCircle
 10
-1955.6419313206588
 20
-845.82805797881474
 30
0.0
 40
14.999999999999805
  0
HATCH
  5
18F
100
AcDbEntity
  8
0
370
               0
390
0
  6
Continuous
 62
               7
100
AcDbHatch
 10
0.0
 20
0.0
 30
0.0
210
0.0
220
0.0
230
1.0
  2
SOLID
 70
               1
 71
               1
 91
        1
 92
        1
 93
        1
 72
               2
 10
-1955.6419313206588
 20
-845.82805797881474
 40
14.999999999999805
 50
0.0
 51
360.0
 73
               0
 97
        1
330
18E
 75
               0
 76
               1
 98
        1
 10
0.0
 20
0.0
  0
WIPEOUT
  5
190
100
AcDbEntity
  8
0
370
               5
390
0
  6
Continuous
 62
               7
 92
        0
100
AcDbWipeout
 90
        0
 10
-1973.1419313206588
 20
-836.69674232962279
 30
0.0
 11
34.5
 21
0.0
 31
0.0
 12
0.0
 22
34.5
 32
0.0
 13
1.0
 23
1.0
340
0
 70
               7
280
               1
281
              50
282
              50
283
               0
360
0
 71
               2
 91
        5
 14
-0.5
 24
0.0507246376811594
 14
0.5
 24
0.0507246376811594
 14
0.5
 24
0.5
 14
-0.5
 24
0.5
 14
-0.5
 24
0.0507246376811594
  0
LINE
  5
191
100
AcDbEntity
  8
一般
370
              18
390
0
  6
Continuous
 62
               7
100
AcDbLine
 10
940.77098655989994
 20
-586.92040654679931
 30
0.0
 11
940.77098655989994
 21
-681.92040654679931
 31
0.0
  0
LINE
  5
192
100
AcDbEntity
  8
一般
370
              18
390
0
  6
Continuous
 62
               7
100
AcDbLine
 10
914.71198286635763
 20
-681.97722121753554
 30
0.0
 11
914.71198286635763
 21
-761.97722121753554
 31
0.0
  0
LINE
  5
193
100
AcDbEntity
  8
一般
370
              18
390
0
  6
Continuous
 62
               7
100
AcDbLine
 10
891.58579194506092
 20
-762.06245638714699
 30
0.0
 11
891.58579194506092
 21
-837.06245638714699
 31
0.0
  0
LINE
  5
194
100
AcDbEntity
  8
一般
370
              18
390
0
  6
Continuous
 62
               7
100
AcDbLine
 10
891.58579194506092
 20
-836.87343901655277
 30
0.0
 11
419.04392116607505
 21
-836.87343901655277
 31
0.0
  0
LINE
  5
195
100
AcDbEntity
  8
一般
370
              18
390
0
  6
Continuous
 62
               7
100
AcDbLine
 10
419.04392116607505
 20
-836.67258393935936
 30
0.0
 11
419.04392116607505
 21
-586.89850562738388
 31
0.0
  0
POLYLINE
  5
196
100
AcDbEntity
  8
寸法
370
              15
390
0
  6
Continuous
 62
               7
100
AcDb2dPolyline
 66
               1
 10
0.0
 20
0.0
 30
0.0
 70
               1
 75
               5
  0
VERTEX
  5
197
100
AcDbEntity
  8
寸法
370
              15
390
0
  6
Continuous
 62
               7
100
AcDbVertex
100
AcDb2dVertex
 10
863.20108227177616
 20
-857.31445724728383
 30
0.0
  0
VERTEX
  5
198
100
AcDbEntity
  8
寸法
370
              15
390
0
  6
Continuous
 62
               7
100
AcDbVertex
100
AcDb2dVertex
 10
893.20108227177616
 20
-857.31445724728383
 30
0.0
  0
VERTEX
  5
199
100
AcDbEntity
  8
寸法
370
              15
390
0
  6
Continuous
 62
               7
100
AcDbVertex
100
AcDb2dVertex
 10
893.20108227177616
 20
-860.81445724728383
 30
0.0
  0
VERTEX
  5
19A
100
AcDbEntity
  8
寸法
370
              15
390
0
  6
Continuous
 62
               7
100
AcDbVertex
100
AcDb2dVertex
 10
863.20108227177616
 20
-860.81445724728383
 30
0.0
  0
SEQEND
  5
19B
100
AcDbEntity
  8
寸法
370
              15
390
0
  6
Continuous
 62
               7
  0
WIPEOUT
  5
19D
100
AcDbEntity
  8
寸法
370
              15
390
0
  6
Continuous
 62
               7
 92
        0
100
AcDbWipeout
 90
        0
 10
871.54356103000919
 20
-857.31445724728383
 30
0.0
 11
20.471841620039868
 21
0.0
 31
0.0
 12
0.0
 22
20.471841620039868
 32
0.0
 13
1.0
 23
1.0
340
0
 70
               7
280
               1
281
              50
282
              50
283
               0
360
0
 71
               2
 91
        5
 14
-0.5
 24
-0.5
 14
0.1350185899872491
 24
-0.5
 14
0.1350185899872491
 24
0.5
 14
-0.5
 24
0.5
 14
-0.5
 24
-0.5
  0
POLYLINE
  5
19E
100
AcDbEntity
  8
寸法
370
              15
390
0
  6
Continuous
 62
               7
100
AcDb2dPolyline
 66
               1
 10
0.0
 20
0.0
 30
0.0
 70
               1
 75
               5
  0
VERTEX
  5
19F
100
AcDbEntity
  8
寸法
370
              15
390
0
  6
Continuous
 62
               7
100
AcDbVertex
100
AcDb2dVertex
 10
871.54356103000919
 20
-836.84261562724396
 30
0.0
  0
VERTEX
  5
1A0
100
AcDbEntity
  8
寸法
370
              15
390
0
  6
Continuous
 62
               7
100
AcDbVertex
100
AcDb2dVertex
 10
884.54356103000919
 20
-836.84261562724396
 30
0.0
  0
VERTEX
  5
1A1
100
AcDbEntity
  8
寸法
370
              15
390
0
  6
Continuous
 62
               7
100
AcDbVertex
100
AcDb2dVertex
 10
884.54356103000919
 20
-857.31445724728383
 30
0.0
  0
VERTEX
  5
1A2
100
AcDbEntity
  8
寸法
370
              15
390
0
  6
Continuous
 62
               7
100
AcDbVertex
100
AcDb2dVertex
 10
871.54356103000919
 20
-857.31445724728383
 30
0.0
  0
SEQEND
  5
1A3
100
AcDbEntity
  8
寸法
370
              15
390
0
  6
Continuous
 62
               7
  0
LINE
  5
1A5
100
AcDbEntity
  8
一般
370
              18
390
0
  6
Continuous
 62
               7
100
AcDbLine
 10
940.58579194506183
 20
-681.87343901655277
 30
0.0
 11
914.58579194506137
 21
-681.87343901655277
 31
0.0
  0
LINE
  5
1A6
100
AcDbEntity
  8
一般
370
              18
390
0
  6
Continuous
 62
               7
100
AcDbLine
 10
914.58579194506137
 20
-761.87343901655277
 30
0.0
 11
891.58579194506092
 21
-761.87343901655277
 31
0.0
  0
CIRCLE
  5
1A7
102
{ACAD_REACTORS
330
1A8
102
}
100
AcDbEntity
  8
0
370
               5
390
0
  6
Continuous
 62
               7
100
AcDbCircle
 10
483.96919694361668
 20
-845.82805797881474
 30
0.0
 40
14.999999999999805
  0
HATCH
  5
1A8
100
AcDbEntity
  8
0
370
               0
390
0
  6
Continuous
 62
               7
100
AcDbHatch
 10
0.0
 20
0.0
 30
0.0
210
0.0
220
0.0
230
1.0
  2
SOLID
 70
               1
 71
               1
 91
        1
 92
        1
 93
        1
 72
               2
 10
483.96919694361668
 20
-845.82805797881474
 40
14.999999999999805
 50
0.0
 51
360.0
 73
               0
 97
        1
330
1A7
 75
               0
 76
               1
 98
        1
 10
0.0
 20
0.0
  0
WIPEOUT
  5
1A9
100
AcDbEntity
  8
0
370
               5
390
0
  6
Continuous
 62
               7
 92
        0
100
AcDbWipeout
 90
        0
 10
466.46919694361713
 20
-836.69674232962279
 30
0.0
 11
34.5
 21
0.0
 31
0.0
 12
0.0
 22
34.5
 32
0.0
 13
1.0
 23
1.0
340
0
 70
               7
280
               1
281
              50
282
              50
283
               0
360
0
 71
               2
 91
        5
 14
-0.5
 24
0.0507246376811594
 14
0.5
 24
0.0507246376811594
 14
0.5
 24
0.5
 14
-0.5
 24
0.5
 14
-0.5
 24
0.0507246376811594
  0
POLYLINE
  5
1AA
100
AcDbEntity
  8
0
370
              15
390
0
  6
Continuous
 62
               7
100
AcDb2dPolyline
 66
               1
 10
0.0
 20
0.0
 30
0.0
 70
               1
 75
               5
  0
VERTEX
  5
1AB
100
AcDbEntity
  8
0
370
              15
390
0
  6
Continuous
 62
               7
100
AcDbVertex
100
AcDb2dVertex
 10
-693.68921536751441
 20
860.28089723082212
 30
0.0
  0
VERTEX
  5
1AC
100
AcDbEntity
  8
0
370
              15
390
0
  6
Continuous
 62
               7
100
AcDbVertex
100
AcDb2dVertex
 10
-679.68920536751443
 20
860.28089723082212
 30
0.0
  0
VERTEX
  5
1AD
100
AcDbEntity
  8
0
370
              15
390
0
  6
Continuous
 62
               7
100
AcDbVertex
100
AcDb2dVertex
 10
-679.68920536751443
 20
837.27989723082192
 30
0.0
  0
VERTEX
  5
1AE
100
AcDbEntity
  8
0
370
              15
390
0
  6
Continuous
 62
               7
100
AcDbVertex
100
AcDb2dVertex
 10
-693.68921536751441
 20
837.27989723082192
 30
0.0
  0
SEQEND
  5
1AF
100
AcDbEntity
  8
0
370
              15
390
0
  6
Continuous
 62
               7
  0
POLYLINE
  5
1B1
100
AcDbEntity
  8
0
370
              15
390
0
  6
Continuous
 62
               7
100
AcDb2dPolyline
 66
               1
 10
0.0
 20
0.0
 30
0.0
 70
               1
 75
               5
  0
VERTEX
  5
1B2
100
AcDbEntity
  8
0
370
              15
390
0
  6
Continuous
 62
               7
100
AcDbVertex
100
AcDb2dVertex
 10
-692.69059385809805
 20
837.28064955787795
 30
0.0
  0
VERTEX
  5
1B3
100
AcDbEntity
  8
0
370
              15
390
0
  6
Continuous
 62
               7
100
AcDbVertex
100
AcDb2dVertex
 10
-680.70059385809805
 20
837.28064955787795
 30
0.0
  0
VERTEX
  5
1B4
100
AcDbEntity
  8
0
370
              15
390
0
  6
Continuous
 62
               7
100
AcDbVertex
100
AcDb2dVertex
 10
-680.70059385809805
 20
836.28064955787795
 30
0.0
  0
VERTEX
  5
1B5
100
AcDbEntity
  8
0
370
              15
390
0
  6
Continuous
 62
               7
100
AcDbVertex
100
AcDb2dVertex
 10
-692.69059385809805
 20
836.28064955787795
 30
0.0
  0
SEQEND
  5
1B6
100
AcDbEntity
  8
0
370
              15
390
0
  6
Continuous
 62
               7
  0
POLYLINE
  5
1B8
100
AcDbEntity
  8
0
370
              15
390
0
  6
Continuous
 62
               7
100
AcDb2dPolyline
 66
               1
 10
0.0
 20
0.0
 30
0.0
 70
               1
 75
               5
  0
VERTEX
  5
1B9
100
AcDbEntity
  8
0
370
              15
390
0
  6
Continuous
 62
               7
100
AcDbVertex
100
AcDb2dVertex
 10
-693.68921536751441
 20
836.28089723082212
 30
0.0
  0
VERTEX
  5
1BA
100
AcDbEntity
  8
0
370
              15
390
0
  6
Continuous
 62
               7
100
AcDbVertex
100
AcDb2dVertex
 10
-679.68920536751443
 20
836.28089723082212
 30
0.0
  0
VERTEX
  5
1BB
100
AcDbEntity
  8
0
370
              15
390
0
  6
Continuous
 62
               7
100
AcDbVertex
100
AcDb2dVertex
 10
-679.68920536751443
 20
267.28089723082212
 30
0.0
  0
VERTEX
  5
1BC
100
AcDbEntity
  8
0
370
              15
390
0
  6
Continuous
 62
               7
100
AcDbVertex
100
AcDb2dVertex
 10
-693.68921536751441
 20
267.28089723082212
 30
0.0
  0
SEQEND
  5
1BD
100
AcDbEntity
  8
0
370
              15
390
0
  6
Continuous
 62
               7
  0
POLYLINE
  5
1BF
100
AcDbEntity
  8
0
370
              15
390
0
  6
Continuous
 62
               7
100
AcDb2dPolyline
 66
               1
 10
0.0
 20
0.0
 30
0.0
 70
               1
 75
               5
  0
VERTEX
  5
1C0
100
AcDbEntity
  8
0
370
              15
390
0
  6
Continuous
 62
               7
100
AcDbVertex
100
AcDb2dVertex
 10
-693.68921536751441
 20
266.28089723082212
 30
0.0
  0
VERTEX
  5
1C1
100
AcDbEntity
  8
0
370
              15
390
0
  6
Continuous
 62
               7
100
AcDbVertex
100
AcDb2dVertex
 10
-679.68920536751443
 20
266.28089723082212
 30
0.0
  0
VERTEX
  5
1C2
100
AcDbEntity
  8
0
370
              15
390
0
  6
Continuous
 62
               7
100
AcDbVertex
100
AcDb2dVertex
 10
-679.68920536751443
 20
243.28089723082212
 30
0.0
  0
VERTEX
  5
1C3
100
AcDbEntity
  8
0
370
              15
390
0
  6
Continuous
 62
               7
100
AcDbVertex
100
AcDb2dVertex
 10
-693.68921536751441
 20
243.28089723082212
 30
0.0
  0
SEQEND
  5
1C4
100
AcDbEntity
  8
0
370
              15
390
0
  6
Continuous
 62
               7
  0
POLYLINE
  5
1C6
100
AcDbEntity
  8
0
370
              15
390
0
  6
Continuous
 62
               7
100
AcDb2dPolyline
 66
               1
 10
0.0
 20
0.0
 30
0.0
 70
               1
 75
               5
  0
VERTEX
  5
1C7
100
AcDbEntity
  8
0
370
              15
390
0
  6
Continuous
 62
               7
100
AcDbVertex
100
AcDb2dVertex
 10
-693.68921536751441
 20
242.28089723081644
 30
0.0
  0
VERTEX
  5
1C8
100
AcDbEntity
  8
0
370
              15
390
0
  6
Continuous
 62
               7
100
AcDbVertex
100
AcDb2dVertex
 10
-679.68920536751443
 20
242.28089723081644
 30
0.0
  0
VERTEX
  5
1C9
100
AcDbEntity
  8
0
370
              15
390
0
  6
Continuous
 62
               7
100
AcDbVertex
100
AcDb2dVertex
 10
-679.68920536751443
 20
-326.71910276918356
 30
0.0
  0
VERTEX
  5
1CA
100
AcDbEntity
  8
0
370
              15
390
0
  6
Continuous
 62
               7
100
AcDbVertex
100
AcDb2dVertex
 10
-693.68921536751441
 20
-326.71910276918356
 30
0.0
  0
SEQEND
  5
1CB
100
AcDbEntity
  8
0
370
              15
390
0
  6
Continuous
 62
               7
  0
POLYLINE
  5
1CD
100
AcDbEntity
  8
0
370
              15
390
0
  6
Continuous
 62
               7
100
AcDb2dPolyline
 66
               1
 10
0.0
 20
0.0
 30
0.0
 70
               1
 75
               5
  0
VERTEX
  5
1CE
100
AcDbEntity
  8
0
370
              15
390
0
  6
Continuous
 62
               7
100
AcDbVertex
100
AcDb2dVertex
 10
-693.68921536751441
 20
-327.71910276918356
 30
0.0
  0
VERTEX
  5
1CF
100
AcDbEntity
  8
0
370
              15
390
0
  6
Continuous
 62
               7
100
AcDbVertex
100
AcDb2dVertex
 10
-679.68920536751443
 20
-327.71910276918356
 30
0.0
  0
VERTEX
  5
1D0
100
AcDbEntity
  8
0
370
              15
390
0
  6
Continuous
 62
               7
100
AcDbVertex
100
AcDb2dVertex
 10
-679.68920536751443
 20
-350.71910276918356
 30
0.0
  0
VERTEX
  5
1D1
100
AcDbEntity
  8
0
370
              15
390
0
  6
Continuous
 62
               7
100
AcDbVertex
100
AcDb2dVertex
 10
-693.68921536751441
 20
-350.71910276918356
 30
0.0
  0
SEQEND
  5
1D2
100
AcDbEntity
  8
0
370
              15
390
0
  6
Continuous
 62
               7
  0
POLYLINE
  5
1D4
100
AcDbEntity
  8
0
370
              15
390
0
  6
Continuous
 62
               7
100
AcDb2dPolyline
 66
               1
 10
0.0
 20
0.0
 30
0.0
 70
               1
 75
               5
  0
VERTEX
  5
1D5
100
AcDbEntity
  8
0
370
              15
390
0
  6
Continuous
 62
               7
100
AcDbVertex
100
AcDb2dVertex
 10
-692.69059385809805
 20
267.28064955787795
 30
0.0
  0
VERTEX
  5
1D6
100
AcDbEntity
  8
0
370
              15
390
0
  6
Continuous
 62
               7
100
AcDbVertex
100
AcDb2dVertex
 10
-680.70059385809805
 20
267.28064955787795
 30
0.0
  0
VERTEX
  5
1D7
100
AcDbEntity
  8
0
370
              15
390
0
  6
Continuous
 62
               7
100
AcDbVertex
100
AcDb2dVertex
 10
-680.70059385809805
 20
266.28064955787795
 30
0.0
  0
VERTEX
  5
1D8
100
AcDbEntity
  8
0
370
              15
390
0
  6
Continuous
 62
               7
100
AcDbVertex
100
AcDb2dVertex
 10
-692.69059385809805
 20
266.28064955787795
 30
0.0
  0
SEQEND
  5
1D9
100
AcDbEntity
  8
0
370
              15
390
0
  6
Continuous
 62
               7
  0
POLYLINE
  5
1DB
100
AcDbEntity
  8
0
370
              15
390
0
  6
Continuous
 62
               7
100
AcDb2dPolyline
 66
               1
 10
0.0
 20
0.0
 30
0.0
 70
               1
 75
               5
  0
VERTEX
  5
1DC
100
AcDbEntity
  8
0
370
              15
390
0
  6
Continuous
 62
               7
100
AcDbVertex
100
AcDb2dVertex
 10
-692.69059385809805
 20
243.28064955787795
 30
0.0
  0
VERTEX
  5
1DD
100
AcDbEntity
  8
0
370
              15
390
0
  6
Continuous
 62
               7
100
AcDbVertex
100
AcDb2dVertex
 10
-680.70059385809805
 20
243.28064955787795
 30
0.0
  0
VERTEX
  5
1DE
100
AcDbEntity
  8
0
370
              15
390
0
  6
Continuous
 62
               7
100
AcDbVertex
100
AcDb2dVertex
 10
-680.70059385809805
 20
242.28064955787795
 30
0.0
  0
VERTEX
  5
1DF
100
AcDbEntity
  8
0
370
              15
390
0
  6
Continuous
 62
               7
100
AcDbVertex
100
AcDb2dVertex
 10
-692.69059385809805
 20
242.28064955787795
 30
0.0
  0
SEQEND
  5
1E0
100
AcDbEntity
  8
0
370
              15
390
0
  6
Continuous
 62
               7
  0
POLYLINE
  5
1E2
100
AcDbEntity
  8
0
370
              15
390
0
  6
Continuous
 62
               7
100
AcDb2dPolyline
 66
               1
 10
0.0
 20
0.0
 30
0.0
 70
               1
 75
               5
  0
VERTEX
  5
1E3
100
AcDbEntity
  8
0
370
              15
390
0
  6
Continuous
 62
               7
100
AcDbVertex
100
AcDb2dVertex
 10
-692.69059385809805
 20
-326.71935044212773
 30
0.0
  0
VERTEX
  5
1E4
100
AcDbEntity
  8
0
370
              15
390
0
  6
Continuous
 62
               7
100
AcDbVertex
100
AcDb2dVertex
 10
-680.70059385809805
 20
-326.71935044212773
 30
0.0
  0
VERTEX
  5
1E5
100
AcDbEntity
  8
0
370
              15
390
0
  6
Continuous
 62
               7
100
AcDbVertex
100
AcDb2dVertex
 10
-680.70059385809805
 20
-327.71935044212773
 30
0.0
  0
VERTEX
  5
1E6
100
AcDbEntity
  8
0
370
              15
390
0
  6
Continuous
 62
               7
100
AcDbVertex
100
AcDb2dVertex
 10
-692.69059385809805
 20
-327.71935044212773
 30
0.0
  0
SEQEND
  5
1E7
100
AcDbEntity
  8
0
370
              15
390
0
  6
Continuous
 62
               7
  0
POLYLINE
  5
1E9
100
AcDbEntity
  8
0
370
              15
390
0
  6
Continuous
 62
               7
100
AcDb2dPolyline
 66
               1
 10
0.0
 20
0.0
 30
0.0
 70
               1
 75
               5
  0
VERTEX
  5
1EA
100
AcDbEntity
  8
0
370
              15
390
0
  6
Continuous
 62
               7
100
AcDbVertex
100
AcDb2dVertex
 10
1051.0215996862112
 20
245.1543757068066
 30
0.0
  0
VERTEX
  5
1EB
100
AcDbEntity
  8
0
370
              15
390
0
  6
Continuous
 62
               7
100
AcDbVertex
100
AcDb2dVertex
 10
1065.0216096862137
 20
245.1543757068066
 30
0.0
  0
VERTEX
  5
1EC
100
AcDbEntity
  8
0
370
              15
390
0
  6
Continuous
 62
               7
100
AcDbVertex
100
AcDb2dVertex
 10
1065.0216096862137
 20
-323.8456242931934
 30
0.0
  0
VERTEX
  5
1ED
100
AcDbEntity
  8
0
370
              15
390
0
  6
Continuous
 62
               7
100
AcDbVertex
100
AcDb2dVertex
 10
1051.0215996862112
 20
-323.8456242931934
 30
0.0
  0
SEQEND
  5
1EE
100
AcDbEntity
  8
0
370
              15
390
0
  6
Continuous
 62
               7
  0
POLYLINE
  5
1F0
100
AcDbEntity
  8
0
370
              15
390
0
  6
Continuous
 62
               7
100
AcDb2dPolyline
 66
               1
 10
0.0
 20
0.0
 30
0.0
 70
               1
 75
               5
  0
VERTEX
  5
1F1
100
AcDbEntity
  8
0
370
              15
390
0
  6
Continuous
 62
               7
100
AcDbVertex
100
AcDb2dVertex
 10
1052.0202211956275
 20
246.15412803386289
 30
0.0
  0
VERTEX
  5
1F2
100
AcDbEntity
  8
0
370
              15
390
0
  6
Continuous
 62
               7
100
AcDbVertex
100
AcDb2dVertex
 10
1064.01022119563
 20
246.15412803386289
 30
0.0
  0
VERTEX
  5
1F3
100
AcDbEntity
  8
0
370
              15
390
0
  6
Continuous
 62
               7
100
AcDbVertex
100
AcDb2dVertex
 10
1064.01022119563
 20
245.15412803386289
 30
0.0
  0
VERTEX
  5
1F4
100
AcDbEntity
  8
0
370
              15
390
0
  6
Continuous
 62
               7
100
AcDbVertex
100
AcDb2dVertex
 10
1052.0202211956275
 20
245.15412803386289
 30
0.0
  0
SEQEND
  5
1F5
100
AcDbEntity
  8
0
370
              15
390
0
  6
Continuous
 62
               7
  0
POLYLINE
  5
1F7
100
AcDbEntity
  8
0
370
              15
390
0
  6
Continuous
 62
               7
100
AcDb2dPolyline
 66
               1
 10
0.0
 20
0.0
 30
0.0
 70
               1
 75
               5
  0
VERTEX
  5
1F8
100
AcDbEntity
  8
0
370
              15
390
0
  6
Continuous
 62
               7
100
AcDbVertex
100
AcDb2dVertex
 10
1052.0202211956275
 20
-323.84587196613757
 30
0.0
  0
VERTEX
  5
1F9
100
AcDbEntity
  8
0
370
              15
390
0
  6
Continuous
 62
               7
100
AcDbVertex
100
AcDb2dVertex
 10
1064.01022119563
 20
-323.84587196613757
 30
0.0
  0
VERTEX
  5
1FA
100
AcDbEntity
  8
0
370
              15
390
0
  6
Continuous
 62
               7
100
AcDbVertex
100
AcDb2dVertex
 10
1064.01022119563
 20
-324.84587196613757
 30
0.0
  0
VERTEX
  5
1FB
100
AcDbEntity
  8
0
370
              15
390
0
  6
Continuous
 62
               7
100
AcDbVertex
100
AcDb2dVertex
 10
1052.0202211956275
 20
-324.84587196613757
 30
0.0
  0
SEQEND
  5
1FC
100
AcDbEntity
  8
0
370
              15
390
0
  6
Continuous
 62
               7
  0
POLYLINE
  5
1FE
100
AcDbEntity
  8
0
370
              15
390
0
  6
Continuous
 62
               7
100
AcDb2dPolyline
 66
               1
 10
0.0
 20
0.0
 30
0.0
 70
               1
 75
               5
  0
VERTEX
  5
1FF
100
AcDbEntity
  8
0
370
              15
390
0
  6
Continuous
 62
               7
100
AcDbVertex
100
AcDb2dVertex
 10
1051.0215996862112
 20
839.05281713879913
 30
0.0
  0
VERTEX
  5
200
100
AcDbEntity
  8
0
370
              15
390
0
  6
Continuous
 62
               7
100
AcDbVertex
100
AcDb2dVertex
 10
1065.0216096862137
 20
839.05281713879913
 30
0.0
  0
VERTEX
  5
201
100
AcDbEntity
  8
0
370
              15
390
0
  6
Continuous
 62
               7
100
AcDbVertex
100
AcDb2dVertex
 10
1065.0216096862137
 20
270.05281713879913
 30
0.0
  0
VERTEX
  5
202
100
AcDbEntity
  8
0
370
              15
390
0
  6
Continuous
 62
               7
100
AcDbVertex
100
AcDb2dVertex
 10
1051.0215996862112
 20
270.05281713879913
 30
0.0
  0
SEQEND
  5
203
100
AcDbEntity
  8
0
370
              15
390
0
  6
Continuous
 62
               7
  0
POLYLINE
  5
205
100
AcDbEntity
  8
0
370
              15
390
0
  6
Continuous
 62
               7
100
AcDb2dPolyline
 66
               1
 10
0.0
 20
0.0
 30
0.0
 70
               1
 75
               5
  0
VERTEX
  5
206
100
AcDbEntity
  8
0
370
              15
390
0
  6
Continuous
 62
               7
100
AcDbVertex
100
AcDb2dVertex
 10
1052.0202211956275
 20
840.05256946589225
 30
0.0
  0
VERTEX
  5
207
100
AcDbEntity
  8
0
370
              15
390
0
  6
Continuous
 62
               7
100
AcDbVertex
100
AcDb2dVertex
 10
1064.01022119563
 20
840.05256946589225
 30
0.0
  0
VERTEX
  5
208
100
AcDbEntity
  8
0
370
              15
390
0
  6
Continuous
 62
               7
100
AcDbVertex
100
AcDb2dVertex
 10
1064.01022119563
 20
839.05256946589225
 30
0.0
  0
VERTEX
  5
209
100
AcDbEntity
  8
0
370
              15
390
0
  6
Continuous
 62
               7
100
AcDbVertex
100
AcDb2dVertex
 10
1052.0202211956275
 20
839.05256946589225
 30
0.0
  0
SEQEND
  5
20A
100
AcDbEntity
  8
0
370
              15
390
0
  6
Continuous
 62
               7
  0
POLYLINE
  5
20C
100
AcDbEntity
  8
0
370
              15
390
0
  6
Continuous
 62
               7
100
AcDb2dPolyline
 66
               1
 10
0.0
 20
0.0
 30
0.0
 70
               1
 75
               5
  0
VERTEX
  5
20D
100
AcDbEntity
  8
0
370
              15
390
0
  6
Continuous
 62
               7
100
AcDbVertex
100
AcDb2dVertex
 10
1052.0202211956275
 20
270.05256946585496
 30
0.0
  0
VERTEX
  5
20E
100
AcDbEntity
  8
0
370
              15
390
0
  6
Continuous
 62
               7
100
AcDbVertex
100
AcDb2dVertex
 10
1064.01022119563
 20
270.05256946585496
 30
0.0
  0
VERTEX
  5
20F
100
AcDbEntity
  8
0
370
              15
390
0
  6
Continuous
 62
               7
100
AcDbVertex
100
AcDb2dVertex
 10
1064.01022119563
 20
269.05256946585496
 30
0.0
  0
VERTEX
  5
210
100
AcDbEntity
  8
0
370
              15
390
0
  6
Continuous
 62
               7
100
AcDbVertex
100
AcDb2dVertex
 10
1052.0202211956275
 20
269.05256946585496
 30
0.0
  0
SEQEND
  5
211
100
AcDbEntity
  8
0
370
              15
390
0
  6
Continuous
 62
               7
  0
POLYLINE
  5
213
100
AcDbEntity
  8
0
370
              15
390
0
  6
Continuous
 62
               7
100
AcDb2dPolyline
 66
               1
 10
0.0
 20
0.0
 30
0.0
 70
               1
 75
               5
  0
VERTEX
  5
214
100
AcDbEntity
  8
0
370
              15
390
0
  6
Continuous
 62
               7
100
AcDbVertex
100
AcDb2dVertex
 10
1016.0529008070012
 20
-324.89566409346844
 30
0.0
  0
VERTEX
  5
215
100
AcDbEntity
  8
0
370
              15
390
0
  6
Continuous
 62
               7
100
AcDbVertex
100
AcDb2dVertex
 10
1065.0529008070107
 20
-324.89566409346844
 30
0.0
  0
VERTEX
  5
216
100
AcDbEntity
  8
0
370
              15
390
0
  6
Continuous
 62
               7
100
AcDbVertex
100
AcDb2dVertex
 10
1065.0529008070107
 20
-347.89566409346844
 30
0.0
  0
VERTEX
  5
217
100
AcDbEntity
  8
0
370
              15
390
0
  6
Continuous
 62
               7
100
AcDbVertex
100
AcDb2dVertex
 10
1016.0529008070012
 20
-347.89566409346844
 30
0.0
  0
SEQEND
  5
218
100
AcDbEntity
  8
0
370
              15
390
0
  6
Continuous
 62
               7
  0
POLYLINE
  5
21A
100
AcDbEntity
  8
0
370
              15
390
0
  6
Continuous
 62
               7
100
AcDb2dPolyline
 66
               1
 10
0.0
 20
0.0
 30
0.0
 70
               1
 75
               5
  0
VERTEX
  5
21B
100
AcDbEntity
  8
0
370
              15
390
0
  6
Continuous
 62
               7
100
AcDbVertex
100
AcDb2dVertex
 10
1058.1233421132906
 20
-324.89566409346844
 30
0.0
  0
VERTEX
  5
21C
100
AcDbEntity
  8
0
370
              15
390
0
  6
Continuous
 62
               7
100
AcDbVertex
100
AcDb2dVertex
 10
1065.0529008070107
 20
-324.89566409346844
 30
0.0
  0
VERTEX
  5
21D
100
AcDbEntity
  8
0
370
              15
390
0
  6
Continuous
 62
               7
100
AcDbVertex
100
AcDb2dVertex
 10
1065.0529008070107
 20
-347.89566409346844
 30
0.0
  0
VERTEX
  5
21E
100
AcDbEntity
  8
0
370
              15
390
0
  6
Continuous
 62
               7
100
AcDbVertex
100
AcDb2dVertex
 10
1058.1233421132906
 20
-347.89566409346844
 30
0.0
  0
SEQEND
  5
21F
100
AcDbEntity
  8
0
370
              15
390
0
  6
Continuous
 62
               7
  0
POLYLINE
  5
221
100
AcDbEntity
  8
0
370
              15
390
0
  6
Continuous
 62
               7
100
AcDb2dPolyline
 66
               1
 10
0.0
 20
0.0
 30
0.0
 70
               1
 75
               5
  0
VERTEX
  5
222
100
AcDbEntity
  8
0
370
              15
390
0
  6
Continuous
 62
               7
100
AcDbVertex
100
AcDb2dVertex
 10
1016.0529008070012
 20
269.13551465297724
 30
0.0
  0
VERTEX
  5
223
100
AcDbEntity
  8
0
370
              15
390
0
  6
Continuous
 62
               7
100
AcDbVertex
100
AcDb2dVertex
 10
1065.0529008070107
 20
269.13551465297724
 30
0.0
  0
VERTEX
  5
224
100
AcDbEntity
  8
0
370
              15
390
0
  6
Continuous
 62
               7
100
AcDbVertex
100
AcDb2dVertex
 10
1065.0529008070107
 20
246.13551465297724
 30
0.0
  0
VERTEX
  5
225
100
AcDbEntity
  8
0
370
              15
390
0
  6
Continuous
 62
               7
100
AcDbVertex
100
AcDb2dVertex
 10
1016.0529008070012
 20
246.13551465297724
 30
0.0
  0
SEQEND
  5
226
100
AcDbEntity
  8
0
370
              15
390
0
  6
Continuous
 62
               7
  0
POLYLINE
  5
228
100
AcDbEntity
  8
0
370
              15
390
0
  6
Continuous
 62
               7
100
AcDb2dPolyline
 66
               1
 10
0.0
 20
0.0
 30
0.0
 70
               1
 75
               5
  0
VERTEX
  5
229
100
AcDbEntity
  8
0
370
              15
390
0
  6
Continuous
 62
               7
100
AcDbVertex
100
AcDb2dVertex
 10
1058.1233421132906
 20
269.13551465297724
 30
0.0
  0
VERTEX
  5
22A
100
AcDbEntity
  8
0
370
              15
390
0
  6
Continuous
 62
               7
100
AcDbVertex
100
AcDb2dVertex
 10
1065.0529008070107
 20
269.13551465297724
 30
0.0
  0
VERTEX
  5
22B
100
AcDbEntity
  8
0
370
              15
390
0
  6
Continuous
 62
               7
100
AcDbVertex
100
AcDb2dVertex
 10
1065.0529008070107
 20
246.13551465297724
 30
0.0
  0
VERTEX
  5
22C
100
AcDbEntity
  8
0
370
              15
390
0
  6
Continuous
 62
               7
100
AcDbVertex
100
AcDb2dVertex
 10
1058.1233421132906
 20
246.13551465297724
 30
0.0
  0
SEQEND
  5
22D
100
AcDbEntity
  8
0
370
              15
390
0
  6
Continuous
 62
               7
  0
POLYLINE
  5
22F
100
AcDbEntity
  8
0
370
              15
390
0
  6
Continuous
 62
               7
100
AcDb2dPolyline
 66
               1
 10
0.0
 20
0.0
 30
0.0
 70
               1
 75
               5
  0
VERTEX
  5
230
100
AcDbEntity
  8
0
370
              15
390
0
  6
Continuous
 62
               7
100
AcDbVertex
100
AcDb2dVertex
 10
1016.0529008070012
 20
863.07407167714928
 30
0.0
  0
VERTEX
  5
231
100
AcDbEntity
  8
0
370
              15
390
0
  6
Continuous
 62
               7
100
AcDbVertex
100
AcDb2dVertex
 10
1065.0529008070107
 20
863.07407167714928
 30
0.0
  0
VERTEX
  5
232
100
AcDbEntity
  8
0
370
              15
390
0
  6
Continuous
 62
               7
100
AcDbVertex
100
AcDb2dVertex
 10
1065.0529008070107
 20
840.07407167714928
 30
0.0
  0
VERTEX
  5
233
100
AcDbEntity
  8
0
370
              15
390
0
  6
Continuous
 62
               7
100
AcDbVertex
100
AcDb2dVertex
 10
1016.0529008070012
 20
840.07407167714928
 30
0.0
  0
SEQEND
  5
234
100
AcDbEntity
  8
0
370
              15
390
0
  6
Continuous
 62
               7
  0
POLYLINE
  5
236
100
AcDbEntity
  8
0
370
              15
390
0
  6
Continuous
 62
               7
100
AcDb2dPolyline
 66
               1
 10
0.0
 20
0.0
 30
0.0
 70
               1
 75
               5
  0
VERTEX
  5
237
100
AcDbEntity
  8
0
370
              15
390
0
  6
Continuous
 62
               7
100
AcDbVertex
100
AcDb2dVertex
 10
1058.1233421132906
 20
863.07407167714928
 30
0.0
  0
VERTEX
  5
238
100
AcDbEntity
  8
0
370
              15
390
0
  6
Continuous
 62
               7
100
AcDbVertex
100
AcDb2dVertex
 10
1065.0529008070107
 20
863.07407167714928
 30
0.0
  0
VERTEX
  5
239
100
AcDbEntity
  8
0
370
              15
390
0
  6
Continuous
 62
               7
100
AcDbVertex
100
AcDb2dVertex
 10
1065.0529008070107
 20
840.07407167714928
 30
0.0
  0
VERTEX
  5
23A
100
AcDbEntity
  8
0
370
              15
390
0
  6
Continuous
 62
               7
100
AcDbVertex
100
AcDb2dVertex
 10
1058.1233421132906
 20
840.07407167714928
 30
0.0
  0
SEQEND
  5
23B
100
AcDbEntity
  8
0
370
              15
390
0
  6
Continuous
 62
               7
  0
POLYLINE
  5
23D
100
AcDbEntity
  8
0
370
              15
390
0
  6
Continuous
 62
               7
100
AcDb2dPolyline
 66
               1
 10
0.0
 20
0.0
 30
0.0
 70
               1
 75
               5
  0
VERTEX
  5
23E
100
AcDbEntity
  8
0
370
              15
390
0
  6
Continuous
 62
               7
100
AcDbVertex
100
AcDb2dVertex
 10
-741.19638258168243
 20
1709.2513462396473
 30
0.0
  0
VERTEX
  5
23F
100
AcDbEntity
  8
0
370
              15
390
0
  6
Continuous
 62
               7
100
AcDbVertex
100
AcDb2dVertex
 10
14.803617418317572
 20
1709.2513462396473
 30
0.0
  0
VERTEX
  5
240
100
AcDbEntity
  8
0
370
              15
390
0
  6
Continuous
 62
               7
100
AcDbVertex
100
AcDb2dVertex
 10
14.803617418317572
 20
1690.2513462396491
 30
0.0
  0
VERTEX
  5
241
100
AcDbEntity
  8
0
370
              15
390
0
  6
Continuous
 62
               7
100
AcDbVertex
100
AcDb2dVertex
 10
-741.19638258168243
 20
1690.2513462396491
 30
0.0
  0
SEQEND
  5
242
100
AcDbEntity
  8
0
370
              15
390
0
  6
Continuous
 62
               7
  0
LINE
  5
244
100
AcDbEntity
  8
0
370
              15
390
0
  6
Continuous
 62
               7
100
AcDbLine
 10
-700.59403609768947
 20
1648.1109835495504
 30
0.0
 11
-700.59403609768947
 21
1690.1109835495504
 31
0.0
  0
LINE
  5
245
100
AcDbEntity
  8
0
370
              15
390
0
  6
Continuous
 62
               7
100
AcDbLine
 10
-686.59403609768947
 20
1690.1109835495504
 30
0.0
 11
-686.59403609768947
 21
1648.1109835495504
 31
0.0
  0
LINE
  5
246
100
AcDbEntity
  8
0
370
              15
390
0
  6
Continuous
 62
               7
100
AcDbLine
 10
-691.91726268411321
 20
1641.2285415301208
 30
0.0
 11
-692.08426248717433
 21
1641.1882075054091
 31
0.0
  0
LINE
  5
247
100
AcDbEntity
  8
0
370
              15
390
0
  6
Continuous
 62
               7
100
AcDbLine
 10
-691.75130302478783
 20
1641.2729617873088
 30
0.0
 11
-691.91726268411321
 21
1641.2285415301208
 31
0.0
  0
LINE
  5
248
100
AcDbEntity
  8
0
370
              15
390
0
  6
Continuous
 62
               7
100
AcDbLine
 10
-691.58648347709186
 20
1641.3214415198709
 30
0.0
 11
-691.75130302478783
 21
1641.2729617873088
 31
0.0
  0
LINE
  5
249
100
AcDbEntity
  8
0
370
              15
390
0
  6
Continuous
 62
               7
100
AcDbLine
 10
-691.42290332215771
 20
1641.3739515254288
 30
0.0
 11
-691.58648347709186
 21
1641.3214415198709
 31
0.0
  0
LINE
  5
24A
100
AcDbEntity
  8
0
370
              15
390
0
  6
Continuous
 62
               7
100
AcDbLine
 10
-691.26066109455405
 20
1641.4304601739186
 30
0.0
 11
-691.42290332215771
 21
1641.3739515254288
 31
0.0
  0
LINE
  5
24B
100
AcDbEntity
  8
0
370
              15
390
0
  6
Continuous
 62
               7
100
AcDbLine
 10
-691.09985452293222
 20
1641.490933426644
 30
0.0
 11
-691.26066109455405
 21
1641.4304601739186
 31
0.0
  0
LINE
  5
24C
100
AcDbEntity
  8
0
370
              15
390
0
  6
Continuous
 62
               7
100
AcDbLine
 10
-690.94058047115777
 20
1641.5553348567787
 30
0.0
 11
-691.09985452293222
 21
1641.490933426644
 31
0.0
  0
LINE
  5
24D
100
AcDbEntity
  8
0
370
              15
390
0
  6
Continuous
 62
               7
100
AcDbLine
 10
-690.78293487996416
 20
1641.6236256713087
 30
0.0
 11
-690.94058047115777
 21
1641.5553348567787
 31
0.0
  0
LINE
  5
24E
100
AcDbEntity
  8
0
370
              15
390
0
  6
Continuous
 62
               7
100
AcDbLine
 10
-690.62701270916068
 20
1641.6957647344016
 30
0.0
 11
-690.78293487996416
 21
1641.6236256713087
 31
0.0
  0
LINE
  5
24F
100
AcDbEntity
  8
0
370
              15
390
0
  6
Continuous
 62
               7
100
AcDbLine
 10
-690.47290788043256
 20
1641.7717085921822
 30
0.0
 11
-690.62701270916068
 21
1641.6957647344016
 31
0.0
  0
LINE
  5
250
100
AcDbEntity
  8
0
370
              15
390
0
  6
Continuous
 62
               7
100
AcDbLine
 10
-690.32071322076627
 20
1641.8514114989116
 30
0.0
 11
-690.47290788043256
 21
1641.7717085921822
 31
0.0
  0
LINE
  5
251
100
AcDbEntity
  8
0
370
              15
390
0
  6
Continuous
 62
               7
100
AcDbLine
 10
-690.17052040653425
 20
1641.9348254445385
 30
0.0
 11
-690.32071322076627
 21
1641.8514114989116
 31
0.0
  0
LINE
  5
252
100
AcDbEntity
  8
0
370
              15
390
0
  6
Continuous
 62
               7
100
AcDbLine
 10
-690.02241990827133
 20
1642.0219001836208
 30
0.0
 11
-690.17052040653425
 21
1641.9348254445385
 31
0.0
  0
LINE
  5
253
100
AcDbEntity
  8
0
370
              15
390
0
  6
Continuous
 62
               7
100
AcDbLine
 10
-689.87650093618004
 20
1642.1125832655921
 30
0.0
 11
-690.02241990827133
 21
1642.0219001836208
 31
0.0
  0
LINE
  5
254
100
AcDbEntity
  8
0
370
              15
390
0
  6
Continuous
 62
               7
100
AcDbLine
 10
-689.73285138639267
 20
1642.2068200663543
 30
0.0
 11
-689.87650093618004
 21
1642.1125832655921
 31
0.0
  0
LINE
  5
255
100
AcDbEntity
  8
0
370
              15
390
0
  6
Continuous
 62
               7
100
AcDbLine
 10
-689.59155778802688
 20
1642.3045538211827
 30
0.0
 11
-689.73285138639267
 21
1642.2068200663543
 31
0.0
  0
LINE
  5
256
100
AcDbEntity
  8
0
370
              15
390
0
  6
Continuous
 62
               7
100
AcDbLine
 10
-689.45270525106298
 20
1642.4057256589172
 30
0.0
 11
-689.59155778802688
 21
1642.3045538211827
 31
0.0
  0
LINE
  5
257
100
AcDbEntity
  8
0
370
              15
390
0
  6
Continuous
 62
               7
100
AcDbLine
 10
-689.31637741507711
 20
1642.5102746374268
 30
0.0
 11
-689.45270525106298
 21
1642.4057256589172
 31
0.0
  0
LINE
  5
258
100
AcDbEntity
  8
0
370
              15
390
0
  6
Continuous
 62
               7
100
AcDbLine
 10
-689.18265639885976
 20
1642.6181377803159
 30
0.0
 11
-689.31637741507711
 21
1642.5102746374268
 31
0.0
  0
LINE
  5
259
100
AcDbEntity
  8
0
370
              15
390
0
  6
Continuous
 62
               7
100
AcDbLine
 10
-689.05162275095154
 20
1642.72925011486
 30
0.0
 11
-689.18265639885976
 21
1642.6181377803159
 31
0.0
  0
LINE
  5
25A
100
AcDbEntity
  8
0
370
              15
390
0
  6
Continuous
 62
               7
100
AcDbLine
 10
-688.92335540112208
 20
1642.8435447111437
 30
0.0
 11
-689.05162275095154
 21
1642.72925011486
 31
0.0
  0
LINE
  5
25B
100
AcDbEntity
  8
0
370
              15
390
0
  6
Continuous
 62
               7
100
AcDbLine
 10
-688.79793161282646
 20
1642.9609527223761
 30
0.0
 11
-688.92335540112208
 21
1642.8435447111437
 31
0.0
  0
LINE
  5
25C
100
AcDbEntity
  8
0
370
              15
390
0
  6
Continuous
 62
               7
100
AcDbLine
 10
-688.67542693666519
 20
1643.0814034263612
 30
0.0
 11
-688.79793161282646
 21
1642.9609527223761
 31
0.0
  0
LINE
  5
25D
100
AcDbEntity
  8
0
370
              15
390
0
  6
Continuous
 62
               7
100
AcDbLine
 10
-688.55591516487402
 20
1643.2048242680994
 30
0.0
 11
-688.67542693666519
 21
1643.0814034263612
 31
0.0
  0
LINE
  5
25E
100
AcDbEntity
  8
0
370
              15
390
0
  6
Continuous
 62
               7
100
AcDbLine
 10
-688.43946828687558
 20
1643.3311409034905
 30
0.0
 11
-688.55591516487402
 21
1643.2048242680994
 31
0.0
  0
LINE
  5
25F
100
AcDbEntity
  8
0
370
              15
390
0
  6
Continuous
 62
               7
100
AcDbLine
 10
-688.32615644591533
 20
1643.4602772441158
 30
0.0
 11
-688.43946828687558
 21
1643.3311409034905
 31
0.0
  0
LINE
  5
260
100
AcDbEntity
  8
0
370
              15
390
0
  6
Continuous
 62
               7
100
AcDbLine
 10
-688.21604789680896
 20
1643.5921555030736
 30
0.0
 11
-688.32615644591533
 21
1643.4602772441158
 31
0.0
  0
LINE
  5
261
100
AcDbEntity
  8
0
370
              15
390
0
  6
Continuous
 62
               7
100
AcDbLine
 10
-688.10920896482912
 20
1643.7266962418307
 30
0.0
 11
-688.21604789680896
 21
1643.5921555030736
 31
0.0
  0
LINE
  5
262
100
AcDbEntity
  8
0
370
              15
390
0
  6
Continuous
 62
               7
100
AcDbLine
 10
-688.00570400575361
 20
1643.8638184180782
 30
0.0
 11
-688.10920896482912
 21
1643.7266962418307
 31
0.0
  0
LINE
  5
263
100
AcDbEntity
  8
0
370
              15
390
0
  6
Continuous
 62
               7
100
AcDbLine
 10
-687.90559536709952
 20
1644.0034394345435
 30
0.0
 11
-688.00570400575361
 21
1643.8638184180782
 31
0.0
  0
LINE
  5
264
100
AcDbEntity
  8
0
370
              15
390
0
  6
Continuous
 62
               7
100
AcDbLine
 10
-687.80894335056746
 20
1644.1454751887472
 30
0.0
 11
-687.90559536709952
 21
1644.0034394345435
 31
0.0
  0
LINE
  5
265
100
AcDbEntity
  8
0
370
              15
390
0
  6
Continuous
 62
               7
100
AcDbLine
 10
-687.71580617571817
 20
1644.2898401236625
 30
0.0
 11
-687.80894335056746
 21
1644.1454751887472
 31
0.0
  0
LINE
  5
266
100
AcDbEntity
  8
0
370
              15
390
0
  6
Continuous
 62
               7
100
AcDbLine
 10
-687.62623994490286
 20
1644.4364472792504
 30
0.0
 11
-687.71580617571817
 21
1644.2898401236625
 31
0.0
  0
LINE
  5
267
100
AcDbEntity
  8
0
370
              15
390
0
  6
Continuous
 62
               7
100
AcDbLine
 10
-687.54029860947003
 20
1644.5852083448422
 30
0.0
 11
-687.62623994490286
 21
1644.4364472792504
 31
0.0
  0
LINE
  5
268
100
AcDbEntity
  8
0
370
              15
390
0
  6
Continuous
 62
               7
100
AcDbLine
 10
-687.45803393726692
 20
1644.7360337123346
 30
0.0
 11
-687.54029860947003
 21
1644.5852083448422
 31
0.0
  0
LINE
  5
269
100
AcDbEntity
  8
0
370
              15
390
0
  6
Continuous
 62
               7
100
AcDbLine
 10
-687.37949548145571
 20
1644.8888325301664
 30
0.0
 11
-687.45803393726692
 21
1644.7360337123346
 31
0.0
  0
LINE
  5
26A
100
AcDbEntity
  8
0
370
              15
390
0
  6
Continuous
 62
               7
100
AcDbLine
 10
-687.30473055066523
 20
1645.0435127580431
 30
0.0
 11
-687.37949548145571
 21
1644.8888325301664
 31
0.0
  0
LINE
  5
26B
100
AcDbEntity
  8
0
370
              15
390
0
  6
Continuous
 62
               7
100
AcDbLine
 10
-687.23378418049469
 20
1645.1999812223785
 30
0.0
 11
-687.30473055066523
 21
1645.0435127580431
 31
0.0
  0
LINE
  5
26C
100
AcDbEntity
  8
0
370
              15
390
0
  6
Continuous
 62
               7
100
AcDbLine
 10
-687.16669910638393
 20
1645.3581436724216
 30
0.0
 11
-687.23378418049469
 21
1645.1999812223785
 31
0.0
  0
LINE
  5
26D
100
AcDbEntity
  8
0
370
              15
390
0
  6
Continuous
 62
               7
100
AcDbLine
 10
-687.10351573787375
 20
1645.5179048370255
 30
0.0
 11
-687.16669910638393
 21
1645.3581436724216
 31
0.0
  0
LINE
  5
26E
100
AcDbEntity
  8
0
370
              15
390
0
  6
Continuous
 62
               7
100
AcDbLine
 10
-687.04427213426243
 20
1645.6791684820396
 30
0.0
 11
-687.10351573787375
 21
1645.5179048370255
 31
0.0
  0
LINE
  5
26F
100
AcDbEntity
  8
0
370
              15
390
0
  6
Continuous
 62
               7
100
AcDbLine
 10
-686.98900398168189
 20
1645.8418374682733
 30
0.0
 11
-687.04427213426243
 21
1645.6791684820396
 31
0.0
  0
LINE
  5
270
100
AcDbEntity
  8
0
370
              15
390
0
  6
Continuous
 62
               7
100
AcDbLine
 10
-686.93774457159998
 20
1646.0058138100121
 30
0.0
 11
-686.98900398168189
 21
1645.8418374682733
 31
0.0
  0
LINE
  5
271
100
AcDbEntity
  8
0
370
              15
390
0
  6
Continuous
 62
               7
100
AcDbLine
 10
-686.89052478076928
 20
1646.1709987340391
 30
0.0
 11
-686.93774457159998
 21
1646.0058138100121
 31
0.0
  0
LINE
  5
272
100
AcDbEntity
  8
0
370
              15
390
0
  6
Continuous
 62
               7
100
AcDbLine
 10
-686.8473730526257
 20
1646.3372927391333
 30
0.0
 11
-686.89052478076928
 21
1646.1709987340391
 31
0.0
  0
LINE
  5
273
100
AcDbEntity
  8
0
370
              15
390
0
  6
Continuous
 62
               7
100
AcDbLine
 10
-686.80831538015673
 20
1646.5045956560034
 30
0.0
 11
-686.8473730526257
 21
1646.3372927391333
 31
0.0
  0
LINE
  5
274
100
AcDbEntity
  8
0
370
              15
390
0
  6
Continuous
 62
               7
100
AcDbLine
 10
-686.77337529024408
 20
1646.6728067076288
 30
0.0
 11
-686.80831538015673
 21
1646.5045956560034
 31
0.0
  0
LINE
  5
275
100
AcDbEntity
  8
0
370
              15
390
0
  6
Continuous
 62
               7
100
AcDbLine
 10
-686.74257382949122
 20
1646.8418245699613
 30
0.0
 11
-686.77337529024408
 21
1646.6728067076288
 31
0.0
  0
LINE
  5
276
100
AcDbEntity
  8
0
370
              15
390
0
  6
Continuous
 62
               7
100
AcDbLine
 10
-686.71592955154665
 20
1647.0115474329609
 30
0.0
 11
-686.74257382949122
 21
1646.8418245699613
 31
0.0
  0
LINE
  5
277
100
AcDbEntity
  8
0
370
              15
390
0
  6
Continuous
 62
               7
100
AcDbLine
 10
-686.69345850592663
 20
1647.1818730619216
 30
0.0
 11
-686.71592955154665
 21
1647.0115474329609
 31
0.0
  0
LINE
  5
278
100
AcDbEntity
  8
0
370
              15
390
0
  6
Continuous
 62
               7
100
AcDbLine
 10
-686.67517422834908
 20
1647.3526988590525
 30
0.0
 11
-686.69345850592663
 21
1647.1818730619216
 31
0.0
  0
LINE
  5
279
100
AcDbEntity
  8
0
370
              15
390
0
  6
Continuous
 62
               7
100
AcDbLine
 10
-686.66108773257929
 20
1647.5239219252817
 30
0.0
 11
-686.67517422834908
 21
1647.3526988590525
 31
0.0
  0
LINE
  5
27A
100
AcDbEntity
  8
0
370
              15
390
0
  6
Continuous
 62
               7
100
AcDbLine
 10
-686.65120750379492
 20
1647.6954391222362
 30
0.0
 11
-686.66108773257929
 21
1647.5239219252817
 31
0.0
  0
LINE
  5
27B
100
AcDbEntity
  8
0
370
              15
390
0
  6
Continuous
 62
               7
100
AcDbLine
 10
-686.64553949347737
 20
1647.86714713437
 30
0.0
 11
-686.65120750379492
 21
1647.6954391222362
 31
0.0
  0
LINE
  5
27C
100
AcDbEntity
  8
0
370
              15
390
0
  6
Continuous
 62
               7
100
AcDbLine
 10
-686.64408711582337
 20
1648.0389425311978
 30
0.0
 11
-686.64553949347737
 21
1647.86714713437
 31
0.0
  0
LINE
  5
27D
100
AcDbEntity
  8
0
370
              15
390
0
  6
Continuous
 62
               7
100
AcDbLine
 10
-700.64122094968798
 20
1647.8137122732282
 30
0.0
 11
-700.6439850795557
 21
1647.9854915716264
 31
0.0
  0
LINE
  5
27E
100
AcDbEntity
  8
0
370
              15
390
0
  6
Continuous
 62
               7
100
AcDbLine
 10
-700.63424197730728
 20
1647.6420525466865
 30
0.0
 11
-700.64122094968798
 21
1647.8137122732282
 31
0.0
  0
LINE
  5
27F
100
AcDbEntity
  8
0
370
              15
390
0
  6
Continuous
 62
               7
100
AcDbLine
 10
-700.62305236628481
 20
1647.4706157934006
 30
0.0
 11
-700.63424197730728
 21
1647.6420525466865
 31
0.0
  0
LINE
  5
280
100
AcDbEntity
  8
0
370
              15
390
0
  6
Continuous
 62
               7
100
AcDbLine
 10
-700.60765885682486
 20
1647.2995052804608
 30
0.0
 11
-700.62305236628481
 21
1647.4706157934006
 31
0.0
  0
LINE
  5
281
100
AcDbEntity
  8
0
370
              15
390
0
  6
Continuous
 62
               7
100
AcDbLine
 10
-700.58807072140121
 20
1647.128824078442
 30
0.0
 11
-700.60765885682486
 21
1647.2995052804608
 31
0.0
  0
LINE
  5
282
100
AcDbEntity
  8
0
370
              15
390
0
  6
Continuous
 62
               7
100
AcDbLine
 10
-700.56429975917445
 20
1646.9586749993177
 30
0.0
 11
-700.58807072140121
 21
1647.128824078442
 31
0.0
  0
LINE
  5
283
100
AcDbEntity
  8
0
370
              15
390
0
  6
Continuous
 62
               7
100
AcDbLine
 10
-700.53636028888332
 20
1646.7891605345312
 30
0.0
 11
-700.56429975917445
 21
1646.9586749993177
 31
0.0
  0
LINE
  5
284
100
AcDbEntity
  8
0
370
              15
390
0
  6
Continuous
 62
               7
100
AcDbLine
 10
-700.50426914022
 20
1646.6203827932577
 30
0.0
 11
-700.53636028888332
 21
1646.7891605345312
 31
0.0
  0
LINE
  5
285
100
AcDbEntity
  8
0
370
              15
390
0
  6
Continuous
 62
               7
100
AcDbLine
 10
-700.46804564369268
 20
1646.4524434408968
 30
0.0
 11
-700.50426914022
 21
1646.6203827932577
 31
0.0
  0
LINE
  5
286
100
AcDbEntity
  8
0
370
              15
390
0
  6
Continuous
 62
               7
100
AcDbLine
 10
-700.42771161898077
 20
1646.2854436378357
 30
0.0
 11
-700.46804564369268
 21
1646.4524434408968
 31
0.0
  0
LINE
  5
287
100
AcDbEntity
  8
0
370
              15
390
0
  6
Continuous
 62
               7
100
AcDbLine
 10
-700.383291361793
 20
1646.1194839785103
 30
0.0
 11
-700.42771161898077
 21
1646.2854436378357
 31
0.0
  0
LINE
  5
288
100
AcDbEntity
  8
0
370
              15
390
0
  6
Continuous
 62
               7
100
AcDbLine
 10
-700.3348116292309
 20
1645.9546644308143
 30
0.0
 11
-700.383291361793
 21
1646.1194839785103
 31
0.0
  0
LINE
  5
289
100
AcDbEntity
  8
0
370
              15
390
0
  6
Continuous
 62
               7
100
AcDbLine
 10
-700.28230162367299
 20
1645.7910842758802
 30
0.0
 11
-700.3348116292309
 21
1645.9546644308143
 31
0.0
  0
LINE
  5
28A
100
AcDbEntity
  8
0
370
              15
390
0
  6
Continuous
 62
               7
100
AcDbLine
 10
-700.22579297518269
 20
1645.6288420482765
 30
0.0
 11
-700.28230162367299
 21
1645.7910842758802
 31
0.0
  0
LINE
  5
28B
100
AcDbEntity
  8
0
370
              15
390
0
  6
Continuous
 62
               7
100
AcDbLine
 10
-700.1653197224573
 20
1645.4680354766547
 30
0.0
 11
-700.22579297518269
 21
1645.6288420482765
 31
0.0
  0
LINE
  5
28C
100
AcDbEntity
  8
0
370
              15
390
0
  6
Continuous
 62
               7
100
AcDbLine
 10
-700.10091829232306
 20
1645.3087614248802
 30
0.0
 11
-700.1653197224573
 21
1645.4680354766547
 31
0.0
  0
LINE
  5
28D
100
AcDbEntity
  8
0
370
              15
390
0
  6
Continuous
 62
               7
100
AcDbLine
 10
-700.03262747779263
 20
1645.1511158336866
 30
0.0
 11
-700.10091829232306
 21
1645.3087614248802
 31
0.0
  0
LINE
  5
28E
100
AcDbEntity
  8
0
370
              15
390
0
  6
Continuous
 62
               7
100
AcDbLine
 10
-699.96048841470019
 20
1644.9951936628831
 30
0.0
 11
-700.03262747779263
 21
1645.1511158336866
 31
0.0
  0
LINE
  5
28F
100
AcDbEntity
  8
0
370
              15
390
0
  6
Continuous
 62
               7
100
AcDbLine
 10
-699.88454455691908
 20
1644.841088834155
 30
0.0
 11
-699.96048841470019
 21
1644.9951936628831
 31
0.0
  0
LINE
  5
290
100
AcDbEntity
  8
0
370
              15
390
0
  6
Continuous
 62
               7
100
AcDbLine
 10
-699.8048416501897
 20
1644.6888941744887
 30
0.0
 11
-699.88454455691908
 21
1644.841088834155
 31
0.0
  0
LINE
  5
291
100
AcDbEntity
  8
0
370
              15
390
0
  6
Continuous
 62
               7
100
AcDbLine
 10
-699.72142770456321
 20
1644.5387013602567
 30
0.0
 11
-699.8048416501897
 21
1644.6888941744887
 31
0.0
  0
LINE
  5
292
100
AcDbEntity
  8
0
370
              15
390
0
  6
Continuous
 62
               7
100
AcDbLine
 10
-699.63435296548073
 20
1644.3906008619938
 30
0.0
 11
-699.72142770456321
 21
1644.5387013602567
 31
0.0
  0
LINE
  5
293
100
AcDbEntity
  8
0
370
              15
390
0
  6
Continuous
 62
               7
100
AcDbLine
 10
-699.54366988350966
 20
1644.2446818899025
 30
0.0
 11
-699.63435296548073
 21
1644.3906008619938
 31
0.0
  0
LINE
  5
294
100
AcDbEntity
  8
0
370
              15
390
0
  6
Continuous
 62
               7
100
AcDbLine
 10
-699.44943308274742
 20
1644.1010323401151
 30
0.0
 11
-699.54366988350966
 21
1644.2446818899025
 31
0.0
  0
LINE
  5
295
100
AcDbEntity
  8
0
370
              15
390
0
  6
Continuous
 62
               7
100
AcDbLine
 10
-699.35169932791905
 20
1643.9597387417493
 30
0.0
 11
-699.44943308274742
 21
1644.1010323401151
 31
0.0
  0
LINE
  5
296
100
AcDbEntity
  8
0
370
              15
390
0
  6
Continuous
 62
               7
100
AcDbLine
 10
-699.25052749018414
 20
1643.8208862047854
 30
0.0
 11
-699.35169932791905
 21
1643.9597387417493
 31
0.0
  0
LINE
  5
297
100
AcDbEntity
  8
0
370
              15
390
0
  6
Continuous
 62
               7
100
AcDbLine
 10
-699.14597851167446
 20
1643.6845583687996
 30
0.0
 11
-699.25052749018414
 21
1643.8208862047854
 31
0.0
  0
LINE
  5
298
100
AcDbEntity
  8
0
370
              15
390
0
  6
Continuous
 62
               7
100
AcDbLine
 10
-699.03811536878584
 20
1643.5508373525822
 30
0.0
 11
-699.14597851167446
 21
1643.6845583687996
 31
0.0
  0
LINE
  5
299
100
AcDbEntity
  8
0
370
              15
390
0
  6
Continuous
 62
               7
100
AcDbLine
 10
-698.92700303424181
 20
1643.419803704674
 30
0.0
 11
-699.03811536878584
 21
1643.5508373525822
 31
0.0
  0
LINE
  5
29A
100
AcDbEntity
  8
0
370
              15
390
0
  6
Continuous
 62
               7
100
AcDbLine
 10
-698.81270843795801
 20
1643.2915363548445
 30
0.0
 11
-698.92700303424181
 21
1643.419803704674
 31
0.0
  0
LINE
  5
29B
100
AcDbEntity
  8
0
370
              15
390
0
  6
Continuous
 62
               7
100
AcDbLine
 10
-698.69530042672523
 20
1643.1661125665487
 30
0.0
 11
-698.81270843795801
 21
1643.2915363548445
 31
0.0
  0
LINE
  5
29C
100
AcDbEntity
  8
0
370
              15
390
0
  6
Continuous
 62
               7
100
AcDbLine
 10
-698.57484972274005
 20
1643.0436078903876
 30
0.0
 11
-698.69530042672523
 21
1643.1661125665487
 31
0.0
  0
LINE
  5
29D
100
AcDbEntity
  8
0
370
              15
390
0
  6
Continuous
 62
               7
100
AcDbLine
 10
-698.4514288810019
 20
1642.9240961185965
 30
0.0
 11
-698.57484972274005
 21
1643.0436078903876
 31
0.0
  0
LINE
  5
29E
100
AcDbEntity
  8
0
370
              15
390
0
  6
Continuous
 62
               7
100
AcDbLine
 10
-698.32511224561108
 20
1642.807649240598
 30
0.0
 11
-698.4514288810019
 21
1642.9240961185965
 31
0.0
  0
LINE
  5
29F
100
AcDbEntity
  8
0
370
              15
390
0
  6
Continuous
 62
               7
100
AcDbLine
 10
-698.19597590498552
 20
1642.6943373996378
 30
0.0
 11
-698.32511224561108
 21
1642.807649240598
 31
0.0
  0
LINE
  5
2A0
100
AcDbEntity
  8
0
370
              15
390
0
  6
Continuous
 62
               7
100
AcDbLine
 10
-698.06409764602813
 20
1642.5842288505314
 30
0.0
 11
-698.19597590498552
 21
1642.6943373996378
 31
0.0
  0
LINE
  5
2A1
100
AcDbEntity
  8
0
370
              15
390
0
  6
Continuous
 62
               7
100
AcDbLine
 10
-697.92955690727058
 20
1642.4773899185516
 30
0.0
 11
-698.06409764602813
 21
1642.5842288505314
 31
0.0
  0
LINE
  5
2A2
100
AcDbEntity
  8
0
370
              15
390
0
  6
Continuous
 62
               7
100
AcDbLine
 10
-697.79243473102338
 20
1642.3738849594761
 30
0.0
 11
-697.92955690727058
 21
1642.4773899185516
 31
0.0
  0
LINE
  5
2A3
100
AcDbEntity
  8
0
370
              15
390
0
  6
Continuous
 62
               7
100
AcDbLine
 10
-697.65281371455808
 20
1642.273776320822
 30
0.0
 11
-697.79243473102338
 21
1642.3738849594761
 31
0.0
  0
LINE
  5
2A4
100
AcDbEntity
  8
0
370
              15
390
0
  6
Continuous
 62
               7
100
AcDbLine
 10
-697.51077796035406
 20
1642.1771243042899
 30
0.0
 11
-697.65281371455808
 21
1642.273776320822
 31
0.0
  0
LINE
  5
2A5
100
AcDbEntity
  8
0
370
              15
390
0
  6
Continuous
 62
               7
100
AcDbLine
 10
-697.36641302543899
 20
1642.0839871294406
 30
0.0
 11
-697.51077796035406
 21
1642.1771243042899
 31
0.0
  0
LINE
  5
2A6
100
AcDbEntity
  8
0
370
              15
390
0
  6
Continuous
 62
               7
100
AcDbLine
 10
-697.21980586985137
 20
1641.9944208986253
 30
0.0
 11
-697.36641302543899
 21
1642.0839871294406
 31
0.0
  0
LINE
  5
2A7
100
AcDbEntity
  8
0
370
              15
390
0
  6
Continuous
 62
               7
100
AcDbLine
 10
-697.07104480425937
 20
1641.9084795631925
 30
0.0
 11
-697.21980586985137
 21
1641.9944208986253
 31
0.0
  0
LINE
  5
2A8
100
AcDbEntity
  8
0
370
              15
390
0
  6
Continuous
 62
               7
100
AcDbLine
 10
-696.92021943676673
 20
1641.8262148909894
 30
0.0
 11
-697.07104480425937
 21
1641.9084795631925
 31
0.0
  0
LINE
  5
2A9
100
AcDbEntity
  8
0
370
              15
390
0
  6
Continuous
 62
               7
100
AcDbLine
 10
-696.76742061893492
 20
1641.7476764351782
 30
0.0
 11
-696.92021943676673
 21
1641.8262148909894
 31
0.0
  0
LINE
  5
2AA
100
AcDbEntity
  8
0
370
              15
390
0
  6
Continuous
 62
               7
100
AcDbLine
 10
-696.61274039105865
 20
1641.6729115043877
 30
0.0
 11
-696.76742061893492
 21
1641.7476764351782
 31
0.0
  0
LINE
  5
2AB
100
AcDbEntity
  8
0
370
              15
390
0
  6
Continuous
 62
               7
100
AcDbLine
 10
-696.45627192672282
 20
1641.6019651342172
 30
0.0
 11
-696.61274039105865
 21
1641.6729115043877
 31
0.0
  0
LINE
  5
2AC
100
AcDbEntity
  8
0
370
              15
390
0
  6
Continuous
 62
               7
100
AcDbLine
 10
-696.29810947668011
 20
1641.5348800601064
 30
0.0
 11
-696.45627192672282
 21
1641.6019651342172
 31
0.0
  0
LINE
  5
2AD
100
AcDbEntity
  8
0
370
              15
390
0
  6
Continuous
 62
               7
100
AcDbLine
 10
-696.13834831207578
 20
1641.4716966915962
 30
0.0
 11
-696.29810947668011
 21
1641.5348800601064
 31
0.0
  0
LINE
  5
2AE
100
AcDbEntity
  8
0
370
              15
390
0
  6
Continuous
 62
               7
100
AcDbLine
 10
-695.97708466706194
 20
1641.4124530879849
 30
0.0
 11
-696.13834831207578
 21
1641.4716966915962
 31
0.0
  0
LINE
  5
2AF
100
AcDbEntity
  8
0
370
              15
390
0
  6
Continuous
 62
               7
100
AcDbLine
 10
-695.81441568082846
 20
1641.3571849354043
 30
0.0
 11
-695.97708466706194
 21
1641.4124530879849
 31
0.0
  0
LINE
  5
2B0
100
AcDbEntity
  8
0
370
              15
390
0
  6
Continuous
 62
               7
100
AcDbLine
 10
-695.65043933908942
 20
1641.3059255253224
 30
0.0
 11
-695.81441568082846
 21
1641.3571849354043
 31
0.0
  0
LINE
  5
2B1
100
AcDbEntity
  8
0
370
              15
390
0
  6
Continuous
 62
               7
100
AcDbLine
 10
-695.48525441506217
 20
1641.2587057344917
 30
0.0
 11
-695.65043933908942
 21
1641.3059255253224
 31
0.0
  0
LINE
  5
2B2
100
AcDbEntity
  8
0
370
              15
390
0
  6
Continuous
 62
               7
100
AcDbLine
 10
-695.31896040996821
 20
1641.2155540063482
 30
0.0
 11
-695.48525441506217
 21
1641.2587057344917
 31
0.0
  0
LINE
  5
2B3
100
AcDbEntity
  8
0
370
              15
390
0
  6
Continuous
 62
               7
100
AcDbLine
 10
-695.1516574930979
 20
1641.1764963338792
 30
0.0
 11
-695.31896040996821
 21
1641.2155540063482
 31
0.0
  0
LINE
  5
2B4
100
AcDbEntity
  8
0
370
              15
390
0
  6
Continuous
 62
               7
100
AcDbLine
 10
-694.98344644147255
 20
1641.1415562439665
 30
0.0
 11
-695.1516574930979
 21
1641.1764963338792
 31
0.0
  0
LINE
  5
2B5
100
AcDbEntity
  8
0
370
              15
390
0
  6
Continuous
 62
               7
100
AcDbLine
 10
-694.81442857913999
 20
1641.1107547832139
 30
0.0
 11
-694.98344644147255
 21
1641.1415562439665
 31
0.0
  0
LINE
  5
2B6
100
AcDbEntity
  8
0
370
              15
390
0
  6
Continuous
 62
               7
100
AcDbLine
 10
-694.64470571614038
 20
1641.0841105052691
 30
0.0
 11
-694.81442857913999
 21
1641.1107547832139
 31
0.0
  0
LINE
  5
2B7
100
AcDbEntity
  8
0
370
              15
390
0
  6
Continuous
 62
               7
100
AcDbLine
 10
-694.47438008718018
 20
1641.0616394596491
 30
0.0
 11
-694.64470571614038
 21
1641.0841105052691
 31
0.0
  0
LINE
  5
2B8
100
AcDbEntity
  8
0
370
              15
390
0
  6
Continuous
 62
               7
100
AcDbLine
 10
-694.30355429004908
 20
1641.0433551820715
 30
0.0
 11
-694.47438008718018
 21
1641.0616394596491
 31
0.0
  0
LINE
  5
2B9
100
AcDbEntity
  8
0
370
              15
390
0
  6
Continuous
 62
               7
100
AcDbLine
 10
-694.13233122382007
 20
1641.0292686863017
 30
0.0
 11
-694.30355429004908
 21
1641.0433551820715
 31
0.0
  0
LINE
  5
2BA
100
AcDbEntity
  8
0
370
              15
390
0
  6
Continuous
 62
               7
100
AcDbLine
 10
-693.96081402686514
 20
1641.0193884575174
 30
0.0
 11
-694.13233122382007
 21
1641.0292686863017
 31
0.0
  0
LINE
  5
2BB
100
AcDbEntity
  8
0
370
              15
390
0
  6
Continuous
 62
               7
100
AcDbLine
 10
-693.78910601473126
 20
1641.0137204471998
 30
0.0
 11
-693.96081402686514
 21
1641.0193884575174
 31
0.0
  0
LINE
  5
2BC
100
AcDbEntity
  8
0
370
              15
390
0
  6
Continuous
 62
               7
100
AcDbLine
 10
-693.61731061790374
 20
1641.0122680695458
 30
0.0
 11
-693.78910601473126
 21
1641.0137204471998
 31
0.0
  0
LINE
  5
2BD
100
AcDbEntity
  8
0
370
              15
390
0
  6
Continuous
 62
               7
100
AcDbLine
 10
-693.44553131950579
 20
1641.0150321994133
 30
0.0
 11
-693.61731061790374
 21
1641.0122680695458
 31
0.0
  0
LINE
  5
2BE
100
AcDbEntity
  8
0
370
              15
390
0
  6
Continuous
 62
               7
100
AcDbLine
 10
-693.27387159296381
 20
1641.0220111717945
 30
0.0
 11
-693.44553131950579
 21
1641.0150321994133
 31
0.0
  0
LINE
  5
2BF
100
AcDbEntity
  8
0
370
              15
390
0
  6
Continuous
 62
               7
100
AcDbLine
 10
-693.10243483967815
 20
1641.0332007828165
 30
0.0
 11
-693.27387159296381
 21
1641.0220111717945
 31
0.0
  0
LINE
  5
2C0
100
AcDbEntity
  8
0
370
              15
390
0
  6
Continuous
 62
               7
100
AcDbLine
 10
-692.93132432673838
 20
1641.0485942922764
 30
0.0
 11
-693.10243483967815
 21
1641.0332007828165
 31
0.0
  0
LINE
  5
2C1
100
AcDbEntity
  8
0
370
              15
390
0
  6
Continuous
 62
               7
100
AcDbLine
 10
-692.76064312471954
 20
1641.0681824277003
 30
0.0
 11
-692.93132432673838
 21
1641.0485942922764
 31
0.0
  0
LINE
  5
2C2
100
AcDbEntity
  8
0
370
              15
390
0
  6
Continuous
 62
               7
100
AcDbLine
 10
-692.59049404559528
 20
1641.0919533899269
 30
0.0
 11
-692.76064312471954
 21
1641.0681824277003
 31
0.0
  0
LINE
  5
2C3
100
AcDbEntity
  8
0
370
              15
390
0
  6
Continuous
 62
               7
100
AcDbLine
 10
-692.42097958080876
 20
1641.119892860218
 30
0.0
 11
-692.59049404559528
 21
1641.0919533899269
 31
0.0
  0
LINE
  5
2C4
100
AcDbEntity
  8
0
370
              15
390
0
  6
Continuous
 62
               7
100
AcDbLine
 10
-692.25220183953525
 20
1641.1519840088813
 30
0.0
 11
-692.42097958080876
 21
1641.119892860218
 31
0.0
  0
LINE
  5
2C5
100
AcDbEntity
  8
0
370
              15
390
0
  6
Continuous
 62
               7
100
AcDbLine
 10
-692.08426248717433
 20
1641.1882075054091
 30
0.0
 11
-692.25220183953525
 21
1641.1519840088813
 31
0.0
  0
WIPEOUT
  5
2C6
100
AcDbEntity
  8
0
370
              15
390
0
  6
Continuous
 62
               7
 92
        0
100
AcDbWipeout
 90
        0
 10
-3199.1535562975141
 20
1195.089720699124
 30
0.0
 11
210.0
 21
0.0
 31
0.0
 12
0.0
 22
210.0
 32
0.0
 13
1.0
 23
1.0
340
0
 70
               7
280
               1
281
              50
282
              50
283
               0
360
0
 71
               2
 91
        5
 14
-0.5
 24
0.1666666666666645
 14
0.5
 24
0.1666666666666645
 14
0.5
 24
0.5
 14
-0.5
 24
0.5
 14
-0.5
 24
0.1666666666666645
  0
POLYLINE
  5
2C7
100
AcDbEntity
  8
0
370
              15
390
0
  6
Continuous
 62
               7
100
AcDb2dPolyline
 66
               1
 10
0.0
 20
0.0
 30
0.0
 70
               1
 75
               5
  0
VERTEX
  5
2C8
100
AcDbEntity
  8
0
370
              15
390
0
  6
Continuous
 62
               7
100
AcDbVertex
100
AcDb2dVertex
 10
-3199.1535562975141
 20
1265.0897206991244
 30
0.0
  0
VERTEX
  5
2C9
100
AcDbEntity
  8
0
370
              15
390
0
  6
Continuous
 62
               7
100
AcDbVertex
100
AcDb2dVertex
 10
-2989.1535562975141
 20
1265.0897206991244
 30
0.0
  0
VERTEX
  5
2CA
100
AcDbEntity
  8
0
370
              15
390
0
  6
Continuous
 62
               7
100
AcDbVertex
100
AcDb2dVertex
 10
-2989.1535562975141
 20
1195.089720699124
 30
0.0
  0
VERTEX
  5
2CB
100
AcDbEntity
  8
0
370
              15
390
0
  6
Continuous
 62
               7
100
AcDbVertex
100
AcDb2dVertex
 10
-3199.1535562975141
 20
1195.089720699124
 30
0.0
  0
SEQEND
  5
2CC
100
AcDbEntity
  8
0
370
              15
390
0
  6
Continuous
 62
               7
  0
WIPEOUT
  5
2CE
100
AcDbEntity
  8
0
370
              15
390
0
  6
Continuous
 62
               7
 92
        0
100
AcDbWipeout
 90
        0
 10
-3019.3999319523286
 20
1184.0410024638636
 30
0.0
 11
400.0
 21
0.0
 31
0.0
 12
0.0
 22
400.0
 32
0.0
 13
1.0
 23
1.0
340
0
 70
               7
280
               1
281
              50
282
              50
283
               0
360
0
 71
               2
 91
        5
 14
-0.5
 24
0.3625
 14
0.5
 24
0.3625
 14
0.5
 24
0.5
 14
-0.5
 24
0.5
 14
-0.5
 24
0.3625
  0
POLYLINE
  5
2CF
100
AcDbEntity
  8
0
370
              15
390
0
  6
Continuous
 62
               7
100
AcDb2dPolyline
 66
               1
 10
0.0
 20
0.0
 30
0.0
 70
               1
 75
               5
  0
VERTEX
  5
2D0
100
AcDbEntity
  8
0
370
              15
390
0
  6
Continuous
 62
               7
100
AcDbVertex
100
AcDb2dVertex
 10
-3019.3999319523286
 20
1239.0410024638636
 30
0.0
  0
VERTEX
  5
2D1
100
AcDbEntity
  8
0
370
              15
390
0
  6
Continuous
 62
               7
100
AcDbVertex
100
AcDb2dVertex
 10
-2619.3999319523286
 20
1239.0410024638636
 30
0.0
  0
VERTEX
  5
2D2
100
AcDbEntity
  8
0
370
              15
390
0
  6
Continuous
 62
               7
100
AcDbVertex
100
AcDb2dVertex
 10
-2619.3999319523286
 20
1184.0410024638636
 30
0.0
  0
VERTEX
  5
2D3
100
AcDbEntity
  8
0
370
              15
390
0
  6
Continuous
 62
               7
100
AcDbVertex
100
AcDb2dVertex
 10
-3019.3999319523286
 20
1184.0410024638636
 30
0.0
  0
SEQEND
  5
2D4
100
AcDbEntity
  8
0
370
              15
390
0
  6
Continuous
 62
               7
  0
ENDSEC
  0
SECTION
  2
OBJECTS
  0
DICTIONARY
  5
19
100
AcDbDictionary
280
               0
281
               1
  3
ACAD_GROUP
350
1A
  3
ACAD_MLINESTYLE
350
1B
  3
ACAD_LAYOUT
350
1E
  3
ACAD_PLOTSETTINGS
350
22
  3
ACAD_PLOTSTYLENAME
350
1F
  3
ACAD_WIPEOUT_VARS
350
23
  0
DICTIONARY
  5
1A
102
{ACAD_REACTORS
330
19
102
}
100
AcDbDictionary
280
               0
281
               1
  0
DICTIONARY
  5
1B
102
{ACAD_REACTORS
330
19
102
}
100
AcDbDictionary
280
               0
281
               1
  3
Standard
350
1C
  0
MLINESTYLE
  5
1C
102
{ACAD_REACTORS
330
1B
102
}
100
AcDbMlineStyle
  2
Standard
 70
               0
  3

 62
               0
 51
90.0
 52
90.0
 71
               2
 49
0.5
 62
             256
  6
ByLayer
 49
-0.5
 62
             256
  6
ByLayer
  0
ACDBDICTIONARYWDFLT
  5
1F
102
{ACAD_REACTORS
330
19
102
}
100
AcDbDictionary
281
               1
  3
Normal
350
1D
100
AcDbDictionaryWithDefault
340
1D
  0
ACDBPLACEHOLDER
  5
1D
102
{ACAD_REACTORS
330
1F
102
}
  0
LAYOUT
  5
20
102
{ACAD_REACTORS
330
1E
102
}
100
AcDbPlotSettings
  1

  2

  4

  6

 40
0.0
 41
0.0
 42
0.0
 43
0.0
 44
0.0
 45
0.0
 46
0.0
 47
0.0
 48
0.0
 49
0.0
140
0.0
141
0.0
142
1.0
143
1.0
 70
            1024
 72
               0
 73
               0
 74
               0
  7

 75
               0
147
1.0
148
0.0
149
0.0
100
AcDbLayout
  1
Model
 70
               0
 71
               0
 10
0.0
 20
0.0
 11
0.0
 21
0.0
 12
0.0
 22
0.0
 32
0.0
 14
0.0
 24
0.0
 34
0.0
 15
0.0
 25
0.0
 35
0.0
146
0.0
 13
0.0
 23
0.0
 33
0.0
 16
0.0
 26
0.0
 36
0.0
 17
0.0
 27
0.0
 37
0.0
 76
               0
330
A
331
0
345
0
346
0
  0
LAYOUT
  5
21
102
{ACAD_REACTORS
330
1E
102
}
100
AcDbPlotSettings
  1

  2

  4

  6

 40
0.0
 41
0.0
 42
0.0
 43
0.0
 44
0.0
 45
0.0
 46
0.0
 47
0.0
 48
0.0
 49
0.0
140
0.0
141
0.0
142
1.0
143
1.0
 70
               0
 72
               0
 73
               0
 74
               0
  7

 75
               0
147
1.0
148
0.0
149
0.0
100
AcDbLayout
  1
Layout1
 70
               0
 71
               0
 10
0.0
 20
0.0
 11
0.0
 21
0.0
 12
0.0
 22
0.0
 32
0.0
 14
0.0
 24
0.0
 34
0.0
 15
0.0
 25
0.0
 35
0.0
146
0.0
 13
0.0
 23
0.0
 33
0.0
 16
0.0
 26
0.0
 36
0.0
 17
0.0
 27
0.0
 37
0.0
 76
               0
330
B
331
0
345
0
346
0
  0
DICTIONARY
  5
1E
102
{ACAD_REACTORS
330
19
102
}
100
AcDbDictionary
280
               0
281
               1
  3
Layout1
350
21
  3
Model
350
20
  0
DICTIONARY
  5
22
102
{ACAD_REACTORS
330
19
102
}
100
AcDbDictionary
280
               0
281
               1
  0
WIPEOUTVARIABLES
  5
23
100
AcDbWipeoutVariables
 70
               0
  0
ENDSEC
  0
EOF
