  0
SECTION
  2
HEADER
  9
$ACADVER
  1
AC1015
  9
$ACADMAINTVER
 70
               6
  9
$DWGCODEPAGE
  3
ANSI_932
  9
$INSBASE
 10
0.0
 20
0.0
 30
0.0
  9
$EXTMIN
 10
-3185.2393870747192
 20
-858.5991443266945
 30
0.0
  9
$EXTMAX
 10
1312.4111469656414
 20
2451.1496640004393
 30
0.0
  9
$LIMMIN
 10
0.0
 20
0.0
  9
$LIMMAX
 10
0.0
 20
0.0
  9
$ORTHOMODE
 70
               0
  9
$REGENMODE
 70
               1
  9
$FILLMODE
 70
               1
  9
$QTEXTMODE
 70
               0
  9
$MIRRTEXT
 70
               1
  9
$LTSCALE
 40
101.59999999999999
  9
$ATTMODE
 70
               1
  9
$TEXTSIZE
 40
0.2
  9
$TRACEWID
 40
1.0
  9
$TEXTSTYLE
  7
Standard
  9
$CLAYER
  8
1
  9
$CELTYPE
  6
Continuous
  9
$CECOLOR
 62
             256
  9
$CELTSCALE
 40
1.0
  9
$DISPSILH
 70
               0
  9
$DIMSCALE
 40
1.0
  9
$DIMASZ
 40
0.18
  9
$DIMEXO
 40
0.0625
  9
$DIMDLI
 40
0.38
  9
$DIMRND
 40
0.0
  9
$DIMDLE
 40
0.0
  9
$DIMEXE
 40
0.18
  9
$DIMTP
 40
0.0
  9
$DIMTM
 40
0.0
  9
$DIMTXT
 40
0.18
  9
$DIMCEN
 40
0.09
  9
$DIMTSZ
 40
0.0
  9
$DIMTOL
 70
               0
  9
$DIMLIM
 70
               0
  9
$DIMTIH
 70
               1
  9
$DIMTOH
 70
               1
  9
$DIMSE1
 70
               0
  9
$DIMSE2
 70
               0
  9
$DIMTAD
 70
               0
  9
$DIMZIN
 70
               0
  9
$DIMBLK
  1

  9
$DIMASO
 70
               1
  9
$DIMSHO
 70
               1
  9
$DIMPOST
  1

  9
$DIMAPOST
  1

  9
$DIMALT
 70
               0
  9
$DIMALTD
 70
               2
  9
$DIMALTF
 40
25.399999999999999
  9
$DIMLFAC
 40
1.0
  9
$DIMTOFL
 70
               0
  9
$DIMTVP
 40
0.0
  9
$DIMTIX
 70
               0
  9
$DIMSOXD
 70
               0
  9
$DIMSAH
 70
               0
  9
$DIMBLK1
  1

  9
$DIMBLK2
  1

  9
$DIMSTYLE
  2
Standard
  9
$DIMCLRD
 70
               0
  9
$DIMCLRE
 70
               0
  9
$DIMCLRT
 70
               0
  9
$DIMTFAC
 40
1.0
  9
$DIMGAP
 40
0.09
  9
$DIMJUST
 70
               0
  9
$DIMSD1
 70
               0
  9
$DIMSD2
 70
               0
  9
$DIMTOLJ
 70
               1
  9
$DIMTZIN
 70
               0
  9
$DIMALTZ
 70
               0
  9
$DIMALTTZ
 70
               0
  9
$DIMUPT
 70
               0
  9
$DIMDEC
 70
               4
  9
$DIMTDEC
 70
               4
  9
$DIMALTU
 70
               2
  9
$DIMALTTD
 70
               2
  9
$DIMTXSTY
  7
Standard
  9
$DIMAUNIT
 70
               0
  9
$DIMADEC
 70
               0
  9
$DIMALTRND
 40
0.0
  9
$DIMAZIN
 70
               0
  9
$DIMDSEP
 70
               0
  9
$DIMATFIT
 70
               3
  9
$DIMFRAC
 70
               0
  9
$DIMLDRBLK
  1

  9
$DIMLUNIT
 70
               2
  9
$DIMLWD
 70
               0
  9
$DIMLWE
 70
               0
  9
$DIMTMOVE
 70
               0
  9
$LUNITS
 70
               2
  9
$LUPREC
 70
               4
  9
$SKETCHINC
 40
0.1
  9
$FILLETRAD
 40
0.0
  9
$AUNITS
 70
               0
  9
$AUPREC
 70
               0
  9
$MENU
  1
acad
  9
$ELEVATION
 40
0.0
  9
$PELEVATION
 40
0.0
  9
$THICKNESS
 40
0.0
  9
$LIMCHECK
 70
               0
  9
$CHAMFERA
 40
0.0
  9
$CHAMFERB
 40
0.0
  9
$CHAMFERC
 40
0.0
  9
$CHAMFERD
 40
0.0
  9
$SKPOLY
 70
               0
  9
$TDCREATE
 40
2456364.452233797
  9
$TDUCREATE
 40
0.000000000
  9
$TDUPDATE
 40
2456364.452233797
  9
$TDUUPDATE
 40
0.000000000
  9
$TDINDWG
 40
0.0000000000
  9
$TDUSRTIMER
 40
0.0000000000
  9
$USRTIMER
 70
               1
  9
$ANGBASE
 50
0.0
  9
$ANGDIR
 70
               0
  9
$PDMODE
 70
               1
  9
$PDSIZE
 40
-2.0
  9
$PLINEWID
 40
0.0
  9
$SPLFRAME
 70
               0
  9
$SPLINETYPE
 70
               6
  9
$SPLINESEGS
 70
               8
  9
$HANDSEED
  5
2E6
  9
$SURFTAB1
 70
               6
  9
$SURFTAB2
 70
               6
  9
$SURFTYPE
 70
               6
  9
$SURFU
 70
               6
  9
$SURFV
 70
               6
  9
$UCSBASE
  2

  9
$UCSNAME
  2

  9
$UCSORG
 10
0.0
 20
0.0
 30
0.0
  9
$UCSXDIR
 10
1.0
 20
0.0
 30
0.0
  9
$UCSYDIR
 10
0.0
 20
1.0
 30
0.0
  9
$UCSORTHOREF
  2

  9
$UCSORTHOVIEW
 70
               0
  9
$UCSORGTOP
 10
0.0
 20
0.0
 30
0.0
  9
$UCSORGBOTTOM
 10
0.0
 20
0.0
 30
0.0
  9
$UCSORGLEFT
 10
0.0
 20
0.0
 30
0.0
  9
$UCSORGRIGHT
 10
0.0
 20
0.0
 30
0.0
  9
$UCSORGFRONT
 10
0.0
 20
0.0
 30
0.0
  9
$UCSORGBACK
 10
0.0
 20
0.0
 30
0.0
  9
$PUCSBASE
  2

  9
$PUCSNAME
  2

  9
$PUCSORG
 10
0.0
 20
0.0
 30
0.0
  9
$PUCSXDIR
 10
1.0
 20
0.0
 30
0.0
  9
$PUCSYDIR
 10
0.0
 20
1.0
 30
0.0
  9
$PUCSORTHOREF
  2

  9
$PUCSORTHOVIEW
 70
               0
  9
$PUCSORGTOP
 10
0.0
 20
0.0
 30
0.0
  9
$PUCSORGBOTTOM
 10
0.0
 20
0.0
 30
0.0
  9
$PUCSORGLEFT
 10
0.0
 20
0.0
 30
0.0
  9
$PUCSORGRIGHT
 10
0.0
 20
0.0
 30
0.0
  9
$PUCSORGFRONT
 10
0.0
 20
0.0
 30
0.0
  9
$PUCSORGBACK
 10
0.0
 20
0.0
 30
0.0
  9
$USERI1
 70
               0
  9
$USERI2
 70
               0
  9
$USERI3
 70
               0
  9
$USERI4
 70
               0
  9
$USERI5
 70
               0
  9
$USERR1
 40
0.0
  9
$USERR2
 40
0.0
  9
$USERR3
 40
0.0
  9
$USERR4
 40
0.0
  9
$USERR5
 40
0.0
  9
$WORLDVIEW
 70
               1
  9
$SHADEDGE
 70
               3
  9
$SHADEDIF
 70
              70
  9
$TILEMODE
 70
               1
  9
$MAXACTVP
 70
              64
  9
$PINSBASE
 10
0.0
 20
0.0
 30
0.0
  9
$PLIMCHECK
 70
               0
  9
$PEXTMIN
 10
1.0000000000000000E+20
 20
1.0000000000000000E+20
 30
1.0000000000000000E+20
  9
$PEXTMAX
 10
-1.0000000000000000E+20
 20
-1.0000000000000000E+20
 30
-1.0000000000000000E+20
  9
$PLIMMIN
 10
0.0
 20
0.0
  9
$PLIMMAX
 10
12.0
 20
9.0
  9
$UNITMODE
 70
               0
  9
$VISRETAIN
 70
               0
  9
$PLINEGEN
 70
               1
  9
$PSLTSCALE
 70
               0
  9
$TREEDEPTH
 70
            3020
  9
$CMLSTYLE
  2
Standard
  9
$CMLJUST
 70
               0
  9
$CMLSCALE
 40
1.0
  9
$PROXYGRAPHICS
 70
               0
  9
$MEASUREMENT
 70
               1
  9
$CELWEIGHT
370
               0
  9
$ENDCAPS
280
               0
  9
$JOINSTYLE
280
               0
  9
$LWDISPLAY
290
               1
  9
$INSUNITS
 70
               4
  9
$HYPERLINKBASE
  1

  9
$STYLESHEET
  1

  9
$XEDIT
290
               1
  9
$CEPSNTYPE
380
               0
  9
$PSTYLEMODE
290
               1
  9
$FINGERPRINTGUID
  2

  9
$VERSIONGUID
  2

  9
$EXTNAMES
290
               1
  9
$PSVPSCALE
 40
0.0
  0
ENDSEC
  0
SECTION
  2
CLASSES
  0
CLASS
  1
LWPOLYLINE
  2
AcDbPolyline
  3
AutoCAD 2000
 90
        0
280
               0
281
               1
  0
CLASS
  1
IMAGE
  2
AcDbRasterImage
  3
ISM
 90
      127
280
               0
281
               1
  0
CLASS
  1
OLE2FRAME
  2
AcDbOle2Frame
  3
AutoCAD 2000
 90
        0
280
               0
281
               1
  0
CLASS
  1
HATCH
  2
AcDbHatch
  3
AutoCAD 2000
 90
        0
280
               0
281
               1
  0
CLASS
  1
DICTIONARYVAR
  2
AcDbDictionaryVar
  3
AutoCAD 2000
 90
        0
280
               0
281
               0
  0
CLASS
  1
RASTERVARIABLES
  2
AcDbRasterVariables
  3
ISM
 90
        0
280
               0
281
               0
  0
CLASS
  1
IMAGEDEF
  2
AcDbRasterImageDef
  3
ISM
 90
        0
280
               0
281
               0
  0
CLASS
  1
IMAGEDEF_REACTOR
  2
AcDbRasterImageDefReactor
  3
ISM
 90
        1
280
               0
281
               0
  0
CLASS
  1
IDBUFFER
  2
AcDbIdBuffer
  3
AutoCAD 2000
 90
        0
280
               0
281
               0
  0
CLASS
  1
SPATIAL_FILTER
  2
AcDbSpatialFilter
  3
AutoCAD 2000
 90
        0
280
               0
281
               0
  0
CLASS
  1
XRECORD
  2
AcDbXrecord
  3
AutoCAD 2000
 90
        0
280
               0
281
               0
  0
CLASS
  1
SORTENTSTABLE
  2
AcDbSortentsTable
  3
AutoCAD 2000
 90
        0
280
               0
281
               0
  0
CLASS
  1
LAYER_INDEX
  2
AcDbLayerIndex
  3
AutoCAD 2000
 90
        0
280
               0
281
               0
  0
CLASS
  1
SPATIAL_INDEX
  2
AcDbSpatialIndex
  3
AutoCAD 2000
 90
        0
280
               0
281
               0
  0
CLASS
  1
OBJECT_PTR
  2
CAseDLPNTableRecord
  3
"ASE-LPNTableRecord"
 90
        1
280
               0
281
               0
  0
CLASS
  1
LAYOUT
  2
AcDbLayout
  3
AutoCAD 2000
 90
        0
280
               0
281
               0
  0
CLASS
  1
PLOTSETTINGS
  2
AcDbPlotSettings
  3
AutoCAD 2000
 90
        0
280
               0
281
               0
  0
CLASS
  1
ACDBDICTIONARYWDFLT
  2
AcDbDictionaryWithDefault
  3
AutoCAD 2000
 90
        0
280
               0
281
               0
  0
CLASS
  1
ACDBPLACEHOLDER
  2
AcDbPlaceHolder
  3
AutoCAD 2000
 90
        0
280
               0
281
               0
  0
CLASS
  1
VBA_PROJECT
  2
AcDbVbaProject
  3
acadvba
 90
        0
280
               0
281
               0
  0
CLASS
  1
WIPEOUT
  2
AcDbWipeout
  3
WipeOut|AutoCAD Express Tool|expresstools@autodesk.com
 90
      127
280
               0
281
               1
  0
CLASS
  1
WIPEOUTVARIABLES
  2
AcDbWipeoutVariables
  3
WipeOut|AutoCAD Express Tool|expresstools@autodesk.com
 90
        0
280
               0
281
               0
  0
CLASS
  1
RTEXT
  2
RText
  3
RText|AutoCAD Express Tool|expresstools@autodesk.com
 90
        0
280
               0
281
               1
  0
CLASS
  1
ARCALIGNEDTEXT
  2
AcDbArcAlignedText
  3
ATEXT|AutoCAD Express Tool|expresstools@autodesk.com
 90
        0
280
               0
281
               1
  0
ENDSEC
  0
SECTION
  2
TABLES
  0
TABLE
  2
VPORT
  5
7
100
AcDbSymbolTable
 70
               1
  0
VPORT
  5
15
100
AcDbSymbolTableRecord
100
AcDbViewportTableRecord
  2
*ACTIVE
 70
               0
 10
0.0
 20
0.0
 11
1.0
 21
1.0
 12
-936.41412005453913
 22
796.27525983687235
 13
0.0
 23
0.0
 14
1.0
 24
1.0
 15
0.0
 25
0.0
 16
0.0
 26
0.0
 36
1.0
 17
0.0
 27
0.0
 37
0.0
 40
3309.7488083271337
 41
0.688564
 42
50.0
 43
0.0
 44
0.0
 50
0.0
 51
0.0
 71
               0
 72
            2000
 73
               1
 74
               1
 75
               0
 76
               0
 77
               0
 78
               0
281
               0
 65
               0
110
0.0
120
0.0
130
0.0
111
1.0
121
0.0
131
0.0
112
0.0
122
1.0
132
0.0
345
0
346
0
 79
               0
146
0.0
  0
ENDTAB
  0
TABLE
  2
LTYPE
  5
4
100
AcDbSymbolTable
 70
              18
  0
LTYPE
  5
11
100
AcDbSymbolTableRecord
100
AcDbLinetypeTableRecord
  2
ByBlock
 70
              64
  3

 72
              65
 73
               0
 40
0.0
  0
LTYPE
  5
12
100
AcDbSymbolTableRecord
100
AcDbLinetypeTableRecord
  2
ByLayer
 70
              64
  3

 72
              65
 73
               0
 40
0.0
  0
LTYPE
  5
13
100
AcDbSymbolTableRecord
100
AcDbLinetypeTableRecord
  2
Continuous
 70
              64
  3
Solid line
 72
              65
 73
               0
 40
0.0
  0
LTYPE
  5
26
100
AcDbSymbolTableRecord
100
AcDbLinetypeTableRecord
  2
STYLE_01
 70
               0
  3

 72
              65
 73
               2
 40
0.4166412353515625
 49
0.208282470703125
 74
               0
 49
-0.2083587646484375
 74
               0
  0
LTYPE
  5
27
100
AcDbSymbolTableRecord
100
AcDbLinetypeTableRecord
  2
STYLE_02
 70
               0
  3

 72
              65
 73
               2
 40
0.694427490234375
 49
0.4860687255859375
 74
               0
 49
-0.2083587646484375
 74
               0
  0
LTYPE
  5
28
100
AcDbSymbolTableRecord
100
AcDbLinetypeTableRecord
  2
STYLE_03
 70
               0
  3

 72
              65
 73
               2
 40
1.25
 49
1.0416412353515625
 74
               0
 49
-0.2083587646484375
 74
               0
  0
LTYPE
  5
29
100
AcDbSymbolTableRecord
100
AcDbLinetypeTableRecord
  2
STYLE_04
 70
               0
  3

 72
              65
 73
               2
 40
1.5277099609375
 49
1.319427490234375
 74
               0
 49
-0.208282470703125
 74
               0
  0
LTYPE
  5
2A
100
AcDbSymbolTableRecord
100
AcDbLinetypeTableRecord
  2
STYLE_05
 70
               0
  3

 72
              65
 73
               2
 40
0.208282470703125
 49
0.069427490234375
 74
               0
 49
-0.13885498046875
 74
               0
  0
LTYPE
  5
2B
100
AcDbSymbolTableRecord
100
AcDbLinetypeTableRecord
  2
STYLE_06
 70
               0
  3

 72
              65
 73
               4
 40
1.0416412353515625
 49
0.625
 74
               0
 49
-0.208282470703125
 74
               0
 49
0.069427490234375
 74
               0
 49
-0.1389312744140625
 74
               0
  0
LTYPE
  5
2C
100
AcDbSymbolTableRecord
100
AcDbLinetypeTableRecord
  2
STYLE_07
 70
               0
  3

 72
              65
 73
               6
 40
1.875
 49
0.625
 74
               0
 49
-0.208282470703125
 74
               0
 49
0.625
 74
               0
 49
-0.2083587646484375
 74
               0
 49
0.069427490234375
 74
               0
 49
-0.1389312744140625
 74
               0
  0
LTYPE
  5
2D
100
AcDbSymbolTableRecord
100
AcDbLinetypeTableRecord
  2
STYLE_08
 70
               0
  3

 72
              65
 73
               6
 40
1.25
 49
0.625
 74
               0
 49
-0.208282470703125
 74
               0
 49
0.069427490234375
 74
               0
 49
-0.1389312744140625
 74
               0
 49
0.069427490234375
 74
               0
 49
-0.1389312744140625
 74
               0
  0
LTYPE
  5
2E
100
AcDbSymbolTableRecord
100
AcDbLinetypeTableRecord
  2
STYLE_09
 70
               0
  3

 72
              65
 73
               4
 40
5.0
 49
3.75
 74
               0
 49
-0.2777862548828125
 74
               0
 49
0.694427490234375
 74
               0
 49
-0.2777862548828125
 74
               0
  0
LTYPE
  5
2F
100
AcDbSymbolTableRecord
100
AcDbLinetypeTableRecord
  2
STYLE_10
 70
               0
  3

 72
              65
 73
               6
 40
5.9375
 49
3.75
 74
               0
 49
-0.2777862548828125
 74
               0
 49
0.694427490234375
 74
               0
 49
-0.2777862548828125
 74
               0
 49
0.625
 74
               0
 49
-0.3125
 74
               0
  0
LTYPE
  5
30
100
AcDbSymbolTableRecord
100
AcDbLinetypeTableRecord
  2
STYLE_11
 70
               0
  3

 72
              65
 73
               2
 40
0.13885498046875
 49
0.069427490234375
 74
               0
 49
-0.069427490234375
 74
               0
  0
LTYPE
  5
31
100
AcDbSymbolTableRecord
100
AcDbLinetypeTableRecord
  2
STYLE_12
 70
               0
  3

 72
              65
 73
               6
 40
0.0098425196850394
 49
0.0049591064453125
 74
               0
 49
-0.0009918212890625
 74
               0
 49
0.0009918212890625
 74
               0
 49
-0.0009918212890625
 74
               0
 49
0.0009918212890625
 74
               0
 49
-0.0009918212890625
 74
               0
  0
LTYPE
  5
32
100
AcDbSymbolTableRecord
100
AcDbLinetypeTableRecord
  2
STYLE_13
 70
               0
  3

 72
              65
 73
               2
 40
0.2777862548828125
 49
0.2083587646484375
 74
               0
 49
-0.069427490234375
 74
               0
  0
LTYPE
  5
33
100
AcDbSymbolTableRecord
100
AcDbLinetypeTableRecord
  2
STYLE_14
 70
               0
  3

 72
              65
 73
               2
 40
0.3472137451171875
 49
0.208282470703125
 74
               0
 49
-0.1389312744140625
 74
               0
  0
LTYPE
  5
34
100
AcDbSymbolTableRecord
100
AcDbLinetypeTableRecord
  2
STYLE_15
 70
               0
  3

 72
              65
 73
               2
 40
0.2777099609375
 49
0.208282470703125
 74
               0
 49
-0.069427490234375
 74
               0
  0
ENDTAB
  0
TABLE
  2
LAYER
  5
2
100
AcDbSymbolTable
 70
               6
  0
LAYER
  5
14
100
AcDbSymbolTableRecord
100
AcDbLayerTableRecord
  2
0
 70
               0
 62
               7
  6
Continuous
290
               1
370
              18
390
1D
  0
LAYER
  5
35
100
AcDbSymbolTableRecord
100
AcDbLayerTableRecord
  2
一般
 70
               0
 62
               7
  6
Continuous
290
               1
370
               5
390
1D
  0
LAYER
  5
36
100
AcDbSymbolTableRecord
100
AcDbLayerTableRecord
  2
2
 70
               0
 62
               7
  6
Continuous
290
               1
370
               5
390
1D
  0
LAYER
  5
37
100
AcDbSymbolTableRecord
100
AcDbLayerTableRecord
  2
3
 70
               0
 62
               7
  6
Continuous
290
               1
370
               5
390
1D
  0
LAYER
  5
38
100
AcDbSymbolTableRecord
100
AcDbLayerTableRecord
  2
寸法
 70
               0
 62
               7
  6
Continuous
290
               1
370
               5
390
1D
  0
LAYER
  5
39
100
AcDbSymbolTableRecord
100
AcDbLayerTableRecord
  2
1
 70
               0
 62
               7
  6
Continuous
290
               1
370
              15
390
1D
  0
ENDTAB
  0
TABLE
  2
STYLE
  5
3
100
AcDbSymbolTable
 70
               3
  0
STYLE
  5
17
100
AcDbSymbolTableRecord
100
AcDbTextStyleTableRecord
  2
Standard
 70
               0
 40
0.0
 41
1.0
 50
0.0
 71
               0
 42
0.0
  3
txt
  4
BIGFONT.SHX
  0
STYLE
  5
24
100
AcDbSymbolTableRecord
100
AcDbTextStyleTableRecord
  2
Arial
 70
               0
 40
0.0
 41
1.0
 50
0.0
 71
               0
 42
0.0
  3

  4
Arial
1001
ACAD
1000
Arial
1071
        0
  0
STYLE
  5
25
100
AcDbSymbolTableRecord
100
AcDbTextStyleTableRecord
  2
Arial (bold)
 70
               0
 40
0.0
 41
1.0
 50
0.0
 71
               0
 42
0.0
  3

  4
Arial
1001
ACAD
1000
Arial
1071
 33554432
  0
ENDTAB
  0
TABLE
  2
VIEW
  5
5
100
AcDbSymbolTable
 70
               0
  0
ENDTAB
  0
TABLE
  2
UCS
  5
6
100
AcDbSymbolTable
 70
               0
  0
ENDTAB
  0
TABLE
  2
APPID
  5
8
100
AcDbSymbolTable
 70
               1
  0
APPID
  5
16
100
AcDbSymbolTableRecord
100
AcDbRegAppTableRecord
  2
ACAD
 70
               0
  0
ENDTAB
  0
TABLE
  2
DIMSTYLE
  5
9
100
AcDbSymbolTable
 70
               1
100
AcDbDimStyleTable
 71
               0
  0
DIMSTYLE
105
18
100
AcDbSymbolTableRecord
100
AcDbDimStyleTableRecord
  2
Standard
 70
               0
  3

  4

 40
1.0
 41
0.18
 42
0.0625
 43
0.38
 44
0.18
 45
0.0
 46
0.0
 47
0.0
 48
0.0
 71
               0
 72
               0
 73
               1
 74
               1
 75
               0
 76
               0
 77
               0
 78
               0
 79
               0
140
0.18
141
0.09
142
0.0
143
25.399999999999999
144
1.0
145
0.0
146
1.0
147
0.09
148
0.0
170
               0
171
               2
172
               0
173
               0
174
               0
175
               0
176
               0
177
               0
178
               0
179
               0
271
               4
272
               4
273
               2
274
               2
275
               0
276
               0
277
               2
278
              46
279
               0
280
               0
281
               0
282
               0
283
               1
284
               0
285
               0
286
               0
288
               0
289
               3
340
17
341
0
342
0
343
0
344
0
371
              -2
372
              -2
  0
ENDTAB
  0
TABLE
  2
BLOCK_RECORD
  5
1
100
AcDbSymbolTable
 70
               0
  0
BLOCK_RECORD
  5
A
100
AcDbSymbolTableRecord
100
AcDbBlockTableRecord
  2
*MODEL_SPACE
340
20
  0
BLOCK_RECORD
  5
B
100
AcDbSymbolTableRecord
100
AcDbBlockTableRecord
  2
*PAPER_SPACE
340
21
  0
ENDTAB
  0
ENDSEC
  0
SECTION
  2
BLOCKS
  0
BLOCK
  5
D
100
AcDbEntity
  8
0
390
0
100
AcDbBlockBegin
  2
*MODEL_SPACE
 70
               0
 10
0.0
 20
0.0
 30
0.0
  3
*MODEL_SPACE
  1

  0
ENDBLK
  5
E
100
AcDbEntity
  8
0
390
0
100
AcDbBlockEnd
  0
BLOCK
  5
F
100
AcDbEntity
 67
               1
  8
0
390
0
100
AcDbBlockBegin
  2
*PAPER_SPACE
 70
               0
 10
0.0
 20
0.0
 30
0.0
  3
*PAPER_SPACE
  1

  0
ENDBLK
  5
10
100
AcDbEntity
 67
               1
  8
0
390
0
100
AcDbBlockEnd
  0
ENDSEC
  0
SECTION
  2
ENTITIES
  0
WIPEOUT
  5
3A
100
AcDbEntity
  8
1
370
               5
390
0
  6
Continuous
 62
               7
 92
        0
100
AcDbWipeout
 90
        0
 10
385.83379472809133
 20
2173.2014668857141
 30
0.0
 11
550.49869791666674
 21
0.0
 31
0.0
 12
0.0
 22
550.49869791666674
 32
0.0
 13
1.0
 23
1.0
340
0
 70
               7
280
               1
281
              50
282
              50
283
               0
360
0
 71
               2
 91
        5
 14
-0.5
 24
0.5
 14
0.5
 24
0.5
 14
0.5
 24
0.3231300690898166
 14
-0.5
 24
0.3231300690898166
 14
-0.5
 24
0.5
  0
MTEXT
  5
3B
100
AcDbEntity
  8
1
390
0
 62
               7
100
AcDbMText
 10
385.83379472809133
 20
2255.0018141079363
 30
0.0
 40
60.633680555555543
 41
0.0
 71
               1
 72
               1
  1
N.TEC,Co.Ltd.
  7
Arial
 73
               1
 44
0.9673603504928806
  0
MTEXT
  5
3C
100
AcDbEntity
  8
2
390
0
 62
               7
100
AcDbMText
 10
371.36264436147508
 20
2433.0433445559947
 30
0.0
 40
60.633680555555543
 41
0.0
 71
               1
 72
               1
  1
GAGGENAU  RF471700
  7
Arial (bold)
 73
               1
 44
0.992595837897043
  0
LINE
  5
3D
100
AcDbEntity
  8
一般
370
              18
390
0
  6
Continuous
 62
               7
100
AcDbLine
 10
-1484.6384187146778
 20
-584.69149289467941
 30
0.0
 11
-1484.6384187146778
 21
-679.69149289467941
 31
0.0
  0
LINE
  5
3E
100
AcDbEntity
  8
一般
370
              18
390
0
  6
Continuous
 62
               7
100
AcDbLine
 10
-1510.6974224082192
 20
-679.74830756541564
 30
0.0
 11
-1510.6974224082192
 21
-759.74830756541564
 31
0.0
  0
LINE
  5
3F
100
AcDbEntity
  8
一般
370
              18
390
0
  6
Continuous
 62
               7
100
AcDbLine
 10
-1533.8236133295159
 20
-759.83354273502709
 30
0.0
 11
-1533.8236133295159
 21
-834.83354273502709
 31
0.0
  0
LINE
  5
40
100
AcDbEntity
  8
一般
370
               5
390
0
  6
Continuous
 62
               7
100
AcDbLine
 10
-3185.2393870747192
 20
1711.444875109546
 30
0.0
 11
-2429.2393870747192
 21
1711.444875109546
 31
0.0
  0
POLYLINE
  5
41
100
AcDbEntity
  8
一般
370
              18
390
0
  6
Continuous
 62
               7
100
AcDb2dPolyline
 66
               1
 10
0.0
 20
0.0
 30
0.0
 70
               1
 75
               5
  0
VERTEX
  5
42
100
AcDbEntity
  8
一般
370
              18
390
0
  6
Continuous
 62
               7
100
AcDbVertex
100
AcDb2dVertex
 10
-3184.8656010446712
 20
2319.4578154101773
 30
0.0
  0
VERTEX
  5
43
100
AcDbEntity
  8
一般
370
              18
390
0
  6
Continuous
 62
               7
100
AcDbVertex
100
AcDb2dVertex
 10
-2428.8656010446712
 20
2319.4578154101773
 30
0.0
  0
VERTEX
  5
44
100
AcDbEntity
  8
一般
370
              18
390
0
  6
Continuous
 62
               7
100
AcDbVertex
100
AcDb2dVertex
 10
-2428.8656010446712
 20
1764.457815410185
 30
0.0
  0
VERTEX
  5
45
100
AcDbEntity
  8
一般
370
              18
390
0
  6
Continuous
 62
               7
100
AcDbVertex
100
AcDb2dVertex
 10
-3184.8656010446712
 20
1764.457815410185
 30
0.0
  0
SEQEND
  5
46
100
AcDbEntity
  8
一般
370
              18
390
0
  6
Continuous
 62
               7
  0
POLYLINE
  5
48
100
AcDbEntity
  8
一般
370
              15
390
0
  6
Continuous
 62
               7
100
AcDb2dPolyline
 66
               1
 10
0.0
 20
0.0
 30
0.0
 70
               1
 75
               5
  0
VERTEX
  5
49
100
AcDbEntity
  8
一般
370
              15
390
0
  6
Continuous
 62
               7
100
AcDbVertex
100
AcDb2dVertex
 10
-3181.2393870747192
 20
1764.4625928205392
 30
0.0
  0
VERTEX
  5
4A
100
AcDbEntity
  8
一般
370
              15
390
0
  6
Continuous
 62
               7
100
AcDbVertex
100
AcDb2dVertex
 10
-2431.2393870747192
 20
1764.4625928205392
 30
0.0
  0
VERTEX
  5
4B
100
AcDbEntity
  8
一般
370
              15
390
0
  6
Continuous
 62
               7
100
AcDbVertex
100
AcDb2dVertex
 10
-2431.2393870747192
 20
1743.4625928205396
 30
0.0
  0
VERTEX
  5
4C
100
AcDbEntity
  8
一般
370
              15
390
0
  6
Continuous
 62
               7
100
AcDbVertex
100
AcDb2dVertex
 10
-3181.2393870747192
 20
1743.4625928205396
 30
0.0
  0
SEQEND
  5
4D
100
AcDbEntity
  8
一般
370
              15
390
0
  6
Continuous
 62
               7
  0
POLYLINE
  5
4F
100
AcDbEntity
  8
一般
370
              15
390
0
  6
Continuous
 62
               7
100
AcDb2dPolyline
 66
               1
 10
0.0
 20
0.0
 30
0.0
 70
               1
 75
               5
  0
VERTEX
  5
50
100
AcDbEntity
  8
一般
370
              15
390
0
  6
Continuous
 62
               7
100
AcDbVertex
100
AcDb2dVertex
 10
-3181.2393870747192
 20
1743.4625928205396
 30
0.0
  0
VERTEX
  5
51
100
AcDbEntity
  8
一般
370
              15
390
0
  6
Continuous
 62
               7
100
AcDbVertex
100
AcDb2dVertex
 10
-2431.2393870747192
 20
1743.4625928205396
 30
0.0
  0
VERTEX
  5
52
100
AcDbEntity
  8
一般
370
              15
390
0
  6
Continuous
 62
               7
100
AcDbVertex
100
AcDb2dVertex
 10
-2431.2393870747192
 20
1713.4625928205401
 30
0.0
  0
VERTEX
  5
53
100
AcDbEntity
  8
一般
370
              15
390
0
  6
Continuous
 62
               7
100
AcDbVertex
100
AcDb2dVertex
 10
-3181.2393870747192
 20
1713.4625928205401
 30
0.0
  0
SEQEND
  5
54
100
AcDbEntity
  8
一般
370
              15
390
0
  6
Continuous
 62
               7
  0
POLYLINE
  5
56
100
AcDbEntity
  8
一般
370
              18
390
0
  6
Continuous
 62
               7
100
AcDb2dPolyline
 66
               1
 10
0.0
 20
0.0
 30
0.0
 70
               1
 75
               5
  0
VERTEX
  5
57
100
AcDbEntity
  8
一般
370
              18
390
0
  6
Continuous
 62
               7
100
AcDbVertex
100
AcDb2dVertex
 10
-3184.8611879367008
 20
1266.3554746355671
 30
0.0
  0
VERTEX
  5
58
100
AcDbEntity
  8
一般
370
              18
390
0
  6
Continuous
 62
               7
100
AcDbVertex
100
AcDb2dVertex
 10
-2428.8611879367008
 20
1266.3554746355671
 30
0.0
  0
VERTEX
  5
59
100
AcDbEntity
  8
一般
370
              18
390
0
  6
Continuous
 62
               7
100
AcDbVertex
100
AcDb2dVertex
 10
-2428.8611879367008
 20
-834.64452536443287
 30
0.0
  0
VERTEX
  5
5A
100
AcDbEntity
  8
一般
370
              18
390
0
  6
Continuous
 62
               7
100
AcDbVertex
100
AcDb2dVertex
 10
-3184.8611879367008
 20
-834.64452536443287
 30
0.0
  0
SEQEND
  5
5B
100
AcDbEntity
  8
一般
370
              18
390
0
  6
Continuous
 62
               7
  0
LINE
  5
5D
100
AcDbEntity
  8
一般
370
              18
390
0
  6
Continuous
 62
               7
100
AcDbLine
 10
-2036.6344609955177
 20
-584.66959197526398
 30
0.0
 11
-1481.6344609955204
 21
-584.66959197526398
 31
0.0
  0
LINE
  5
5E
100
AcDbEntity
  8
一般
370
              18
390
0
  6
Continuous
 62
               7
100
AcDbLine
 10
-2428.9001743044319
 20
-584.66959197526398
 30
0.0
 11
-3184.9001743044319
 21
-584.66959197526398
 31
0.0
  0
LINE
  5
5F
100
AcDbEntity
  8
一般
370
              18
390
0
  6
Continuous
 62
               7
100
AcDbLine
 10
-2428.9001743044319
 20
-679.66959197526398
 30
0.0
 11
-3184.9001743044319
 21
-679.66959197526398
 31
0.0
  0
LINE
  5
60
100
AcDbEntity
  8
一般
370
              18
390
0
  6
Continuous
 62
               7
100
AcDbLine
 10
-2428.9001743044319
 20
-759.66959197526398
 30
0.0
 11
-3184.9001743044319
 21
-759.66959197526398
 31
0.0
  0
POLYLINE
  5
61
100
AcDbEntity
  8
寸法
370
              15
390
0
  6
Continuous
 62
               7
100
AcDb2dPolyline
 66
               1
 10
0.0
 20
0.0
 30
0.0
 70
               1
 75
               5
  0
VERTEX
  5
62
100
AcDbEntity
  8
寸法
370
              15
390
0
  6
Continuous
 62
               7
100
AcDbVertex
100
AcDb2dVertex
 10
-2471.8463682960455
 20
-855.08554359516393
 30
0.0
  0
VERTEX
  5
63
100
AcDbEntity
  8
寸法
370
              15
390
0
  6
Continuous
 62
               7
100
AcDbVertex
100
AcDb2dVertex
 10
-2441.8463682960455
 20
-855.08554359516393
 30
0.0
  0
VERTEX
  5
64
100
AcDbEntity
  8
寸法
370
              15
390
0
  6
Continuous
 62
               7
100
AcDbVertex
100
AcDb2dVertex
 10
-2441.8463682960455
 20
-858.58554359516393
 30
0.0
  0
VERTEX
  5
65
100
AcDbEntity
  8
寸法
370
              15
390
0
  6
Continuous
 62
               7
100
AcDbVertex
100
AcDb2dVertex
 10
-2471.8463682960455
 20
-858.58554359516393
 30
0.0
  0
SEQEND
  5
66
100
AcDbEntity
  8
寸法
370
              15
390
0
  6
Continuous
 62
               7
  0
WIPEOUT
  5
68
100
AcDbEntity
  8
寸法
370
              15
390
0
  6
Continuous
 62
               7
 92
        0
100
AcDbWipeout
 90
        0
 10
-2463.1888470542781
 20
-855.08554359516393
 30
0.0
 11
20.471841620039868
 21
0.0
 31
0.0
 12
0.0
 22
20.471841620039868
 32
0.0
 13
1.0
 23
1.0
340
0
 70
               7
280
               1
281
              50
282
              50
283
               0
360
0
 71
               2
 91
        5
 14
-0.5
 24
-0.5
 14
0.1350185899872491
 24
-0.5
 14
0.1350185899872491
 24
0.5
 14
-0.5
 24
0.5
 14
-0.5
 24
-0.5
  0
POLYLINE
  5
69
100
AcDbEntity
  8
寸法
370
              15
390
0
  6
Continuous
 62
               7
100
AcDb2dPolyline
 66
               1
 10
0.0
 20
0.0
 30
0.0
 70
               1
 75
               5
  0
VERTEX
  5
6A
100
AcDbEntity
  8
寸法
370
              15
390
0
  6
Continuous
 62
               7
100
AcDbVertex
100
AcDb2dVertex
 10
-2463.1888470542781
 20
-834.61370197512406
 30
0.0
  0
VERTEX
  5
6B
100
AcDbEntity
  8
寸法
370
              15
390
0
  6
Continuous
 62
               7
100
AcDbVertex
100
AcDb2dVertex
 10
-2450.1888470542781
 20
-834.61370197512406
 30
0.0
  0
VERTEX
  5
6C
100
AcDbEntity
  8
寸法
370
              15
390
0
  6
Continuous
 62
               7
100
AcDbVertex
100
AcDb2dVertex
 10
-2450.1888470542781
 20
-855.08554359516393
 30
0.0
  0
VERTEX
  5
6D
100
AcDbEntity
  8
寸法
370
              15
390
0
  6
Continuous
 62
               7
100
AcDbVertex
100
AcDb2dVertex
 10
-2463.1888470542781
 20
-855.08554359516393
 30
0.0
  0
SEQEND
  5
6E
100
AcDbEntity
  8
寸法
370
              15
390
0
  6
Continuous
 62
               7
  0
POLYLINE
  5
70
100
AcDbEntity
  8
寸法
370
              15
390
0
  6
Continuous
 62
               7
100
AcDb2dPolyline
 66
               1
 10
0.0
 20
0.0
 30
0.0
 70
               1
 75
               5
  0
VERTEX
  5
71
100
AcDbEntity
  8
寸法
370
              15
390
0
  6
Continuous
 62
               7
100
AcDbVertex
100
AcDb2dVertex
 10
-3171.9372365828376
 20
-855.08554359516393
 30
0.0
  0
VERTEX
  5
72
100
AcDbEntity
  8
寸法
370
              15
390
0
  6
Continuous
 62
               7
100
AcDbVertex
100
AcDb2dVertex
 10
-3141.9372365828376
 20
-855.08554359516393
 30
0.0
  0
VERTEX
  5
73
100
AcDbEntity
  8
寸法
370
              15
390
0
  6
Continuous
 62
               7
100
AcDbVertex
100
AcDb2dVertex
 10
-3141.9372365828376
 20
-858.58554359516393
 30
0.0
  0
VERTEX
  5
74
100
AcDbEntity
  8
寸法
370
              15
390
0
  6
Continuous
 62
               7
100
AcDbVertex
100
AcDb2dVertex
 10
-3171.9372365828376
 20
-858.58554359516393
 30
0.0
  0
SEQEND
  5
75
100
AcDbEntity
  8
寸法
370
              15
390
0
  6
Continuous
 62
               7
  0
WIPEOUT
  5
77
100
AcDbEntity
  8
寸法
370
              15
390
0
  6
Continuous
 62
               7
 92
        0
100
AcDbWipeout
 90
        0
 10
-3163.2797153410702
 20
-855.08554359516393
 30
0.0
 11
20.471841620039868
 21
0.0
 31
0.0
 12
0.0
 22
20.471841620039868
 32
0.0
 13
1.0
 23
1.0
340
0
 70
               7
280
               1
281
              50
282
              50
283
               0
360
0
 71
               2
 91
        5
 14
-0.5
 24
-0.5
 14
0.1350185899872491
 24
-0.5
 14
0.1350185899872491
 24
0.5
 14
-0.5
 24
0.5
 14
-0.5
 24
-0.5
  0
POLYLINE
  5
78
100
AcDbEntity
  8
寸法
370
              15
390
0
  6
Continuous
 62
               7
100
AcDb2dPolyline
 66
               1
 10
0.0
 20
0.0
 30
0.0
 70
               1
 75
               5
  0
VERTEX
  5
79
100
AcDbEntity
  8
寸法
370
              15
390
0
  6
Continuous
 62
               7
100
AcDbVertex
100
AcDb2dVertex
 10
-3163.2797153410702
 20
-834.61370197512406
 30
0.0
  0
VERTEX
  5
7A
100
AcDbEntity
  8
寸法
370
              15
390
0
  6
Continuous
 62
               7
100
AcDbVertex
100
AcDb2dVertex
 10
-3150.2797153410702
 20
-834.61370197512406
 30
0.0
  0
VERTEX
  5
7B
100
AcDbEntity
  8
寸法
370
              15
390
0
  6
Continuous
 62
               7
100
AcDbVertex
100
AcDb2dVertex
 10
-3150.2797153410702
 20
-855.08554359516393
 30
0.0
  0
VERTEX
  5
7C
100
AcDbEntity
  8
寸法
370
              15
390
0
  6
Continuous
 62
               7
100
AcDbVertex
100
AcDb2dVertex
 10
-3163.2797153410702
 20
-855.08554359516393
 30
0.0
  0
SEQEND
  5
7D
100
AcDbEntity
  8
寸法
370
              15
390
0
  6
Continuous
 62
               7
  0
POLYLINE
  5
7F
100
AcDbEntity
  8
一般
370
              18
390
0
  6
Continuous
 62
               7
100
AcDb2dPolyline
 66
               1
 10
0.0
 20
0.0
 30
0.0
 70
               1
 75
               5
  0
VERTEX
  5
80
100
AcDbEntity
  8
一般
370
              18
390
0
  6
Continuous
 62
               7
100
AcDbVertex
100
AcDb2dVertex
 10
-3184.85021198506
 20
1186.3285772981517
 30
0.0
  0
VERTEX
  5
81
100
AcDbEntity
  8
一般
370
              18
390
0
  6
Continuous
 62
               7
100
AcDbVertex
100
AcDb2dVertex
 10
-2428.85021198506
 20
1186.3285772981517
 30
0.0
  0
VERTEX
  5
82
100
AcDbEntity
  8
一般
370
              18
390
0
  6
Continuous
 62
               7
100
AcDbVertex
100
AcDb2dVertex
 10
-2428.85021198506
 20
-583.67142270184831
 30
0.0
  0
VERTEX
  5
83
100
AcDbEntity
  8
一般
370
              18
390
0
  6
Continuous
 62
               7
100
AcDbVertex
100
AcDb2dVertex
 10
-3184.85021198506
 20
-583.67142270184831
 30
0.0
  0
SEQEND
  5
84
100
AcDbEntity
  8
一般
370
              18
390
0
  6
Continuous
 62
               7
  0
LINE
  5
86
100
AcDbEntity
  8
一般
370
               5
390
0
  6
STYLE_06
 62
               7
100
AcDbLine
 10
-2434.4874019066528
 20
1174.7398972016699
 30
0.0
 11
-3184.6874019066527
 21
301.22120033166402
 31
0.0
  0
LINE
  5
87
100
AcDbEntity
  8
一般
370
               5
390
0
  6
STYLE_06
 62
               7
100
AcDbLine
 10
-3184.6874019066536
 20
301.02120033166398
 30
0.0
 11
-2432.4874019066528
 21
-583.26010279833008
 31
0.0
  0
LINE
  5
88
100
AcDbEntity
  8
一般
370
              18
390
0
  6
Continuous
 62
               7
100
AcDbLine
 10
-2036.6344609955177
 20
-584.66959197526398
 30
0.0
 11
-2036.6344609955177
 21
1266.3554746355749
 31
0.0
  0
LINE
  5
89
100
AcDbEntity
  8
一般
370
              18
390
0
  6
Continuous
 62
               7
100
AcDbLine
 10
-1533.8236133295159
 20
-834.64452536443287
 30
0.0
 11
-2006.365484108499
 21
-834.64452536443287
 31
0.0
  0
LINE
  5
8A
100
AcDbEntity
  8
一般
370
              18
390
0
  6
Continuous
 62
               7
100
AcDbLine
 10
-2036.6344609955177
 20
1266.3554746355749
 30
0.0
 11
-1481.6344609955204
 21
1266.3554746355749
 31
0.0
  0
LINE
  5
8B
100
AcDbEntity
  8
一般
370
              18
390
0
  6
Continuous
 62
               7
100
AcDbLine
 10
-2006.365484108499
 20
-834.44367028723946
 30
0.0
 11
-2006.3654841084999
 21
-584.66959197526398
 31
0.0
  0
LINE
  5
8C
100
AcDbEntity
  8
一般
370
              18
390
0
  6
Continuous
 62
               7
100
AcDbLine
 10
-1481.6344609955204
 20
-584.66959197526398
 30
0.0
 11
-1481.6344609955204
 21
1266.3554746355749
 31
0.0
  0
POLYLINE
  5
8D
100
AcDbEntity
  8
一般
370
              15
390
0
  6
Continuous
 62
               7
100
AcDb2dPolyline
 66
               1
 10
0.0
 20
0.0
 30
0.0
 70
               1
 75
               5
  0
VERTEX
  5
8E
100
AcDbEntity
  8
一般
370
              15
390
0
  6
Continuous
 62
               7
100
AcDbVertex
100
AcDb2dVertex
 10
-1481.6386948943277
 20
1186.3712003316552
 30
0.0
  0
VERTEX
  5
8F
100
AcDbEntity
  8
一般
370
              15
390
0
  6
Continuous
 62
               7
100
AcDbVertex
100
AcDb2dVertex
 10
-1460.6386948943277
 20
1186.3712003316552
 30
0.0
  0
VERTEX
  5
90
100
AcDbEntity
  8
一般
370
              15
390
0
  6
Continuous
 62
               7
100
AcDbVertex
100
AcDb2dVertex
 10
-1460.6386948943277
 20
-560.62879966834475
 30
0.0
  0
VERTEX
  5
91
100
AcDbEntity
  8
一般
370
              15
390
0
  6
Continuous
 62
               7
100
AcDbVertex
100
AcDb2dVertex
 10
-1481.6386948943277
 20
-560.62879966834475
 30
0.0
  0
SEQEND
  5
92
100
AcDbEntity
  8
一般
370
              15
390
0
  6
Continuous
 62
               7
  0
POLYLINE
  5
94
100
AcDbEntity
  8
一般
370
              15
390
0
  6
Continuous
 62
               7
100
AcDb2dPolyline
 66
               1
 10
0.0
 20
0.0
 30
0.0
 70
               1
 75
               5
  0
VERTEX
  5
95
100
AcDbEntity
  8
一般
370
              15
390
0
  6
Continuous
 62
               7
100
AcDbVertex
100
AcDb2dVertex
 10
-1460.6386948943277
 20
1186.3712003316552
 30
0.0
  0
VERTEX
  5
96
100
AcDbEntity
  8
一般
370
              15
390
0
  6
Continuous
 62
               7
100
AcDbVertex
100
AcDb2dVertex
 10
-1430.6386948943277
 20
1186.3712003316552
 30
0.0
  0
VERTEX
  5
97
100
AcDbEntity
  8
一般
370
              15
390
0
  6
Continuous
 62
               7
100
AcDbVertex
100
AcDb2dVertex
 10
-1430.6386948943277
 20
-583.62879966834475
 30
0.0
  0
VERTEX
  5
98
100
AcDbEntity
  8
一般
370
              15
390
0
  6
Continuous
 62
               7
100
AcDbVertex
100
AcDb2dVertex
 10
-1460.6386948943277
 20
-583.62879966834475
 30
0.0
  0
SEQEND
  5
99
100
AcDbEntity
  8
一般
370
              15
390
0
  6
Continuous
 62
               7
  0
POLYLINE
  5
9B
100
AcDbEntity
  8
寸法
370
              15
390
0
  6
Continuous
 62
               7
100
AcDb2dPolyline
 66
               1
 10
0.0
 20
0.0
 30
0.0
 70
               1
 75
               5
  0
VERTEX
  5
9C
100
AcDbEntity
  8
寸法
370
              15
390
0
  6
Continuous
 62
               7
100
AcDbVertex
100
AcDb2dVertex
 10
-1562.2083230027993
 20
-855.08554359516393
 30
0.0
  0
VERTEX
  5
9D
100
AcDbEntity
  8
寸法
370
              15
390
0
  6
Continuous
 62
               7
100
AcDbVertex
100
AcDb2dVertex
 10
-1532.2083230027993
 20
-855.08554359516393
 30
0.0
  0
VERTEX
  5
9E
100
AcDbEntity
  8
寸法
370
              15
390
0
  6
Continuous
 62
               7
100
AcDbVertex
100
AcDb2dVertex
 10
-1532.2083230027993
 20
-858.58554359516393
 30
0.0
  0
VERTEX
  5
9F
100
AcDbEntity
  8
寸法
370
              15
390
0
  6
Continuous
 62
               7
100
AcDbVertex
100
AcDb2dVertex
 10
-1562.2083230027993
 20
-858.58554359516393
 30
0.0
  0
SEQEND
  5
A0
100
AcDbEntity
  8
寸法
370
              15
390
0
  6
Continuous
 62
               7
  0
WIPEOUT
  5
A2
100
AcDbEntity
  8
寸法
370
              15
390
0
  6
Continuous
 62
               7
 92
        0
100
AcDbWipeout
 90
        0
 10
-1553.8658442445667
 20
-855.08554359516393
 30
0.0
 11
20.471841620039868
 21
0.0
 31
0.0
 12
0.0
 22
20.471841620039868
 32
0.0
 13
1.0
 23
1.0
340
0
 70
               7
280
               1
281
              50
282
              50
283
               0
360
0
 71
               2
 91
        5
 14
-0.5
 24
-0.5
 14
0.1350185899872491
 24
-0.5
 14
0.1350185899872491
 24
0.5
 14
-0.5
 24
0.5
 14
-0.5
 24
-0.5
  0
POLYLINE
  5
A3
100
AcDbEntity
  8
寸法
370
              15
390
0
  6
Continuous
 62
               7
100
AcDb2dPolyline
 66
               1
 10
0.0
 20
0.0
 30
0.0
 70
               1
 75
               5
  0
VERTEX
  5
A4
100
AcDbEntity
  8
寸法
370
              15
390
0
  6
Continuous
 62
               7
100
AcDbVertex
100
AcDb2dVertex
 10
-1553.8658442445667
 20
-834.61370197512406
 30
0.0
  0
VERTEX
  5
A5
100
AcDbEntity
  8
寸法
370
              15
390
0
  6
Continuous
 62
               7
100
AcDbVertex
100
AcDb2dVertex
 10
-1540.8658442445667
 20
-834.61370197512406
 30
0.0
  0
VERTEX
  5
A6
100
AcDbEntity
  8
寸法
370
              15
390
0
  6
Continuous
 62
               7
100
AcDbVertex
100
AcDb2dVertex
 10
-1540.8658442445667
 20
-855.08554359516393
 30
0.0
  0
VERTEX
  5
A7
100
AcDbEntity
  8
寸法
370
              15
390
0
  6
Continuous
 62
               7
100
AcDbVertex
100
AcDb2dVertex
 10
-1553.8658442445667
 20
-855.08554359516393
 30
0.0
  0
SEQEND
  5
A8
100
AcDbEntity
  8
寸法
370
              15
390
0
  6
Continuous
 62
               7
  0
LINE
  5
AA
100
AcDbEntity
  8
一般
370
              18
390
0
  6
Continuous
 62
               7
100
AcDbLine
 10
-1484.8236133295159
 20
-679.64452536443287
 30
0.0
 11
-1510.8236133295159
 21
-679.64452536443287
 31
0.0
  0
LINE
  5
AB
100
AcDbEntity
  8
一般
370
              18
390
0
  6
Continuous
 62
               7
100
AcDbLine
 10
-1510.8236133295159
 20
-759.64452536443287
 30
0.0
 11
-1533.8236133295159
 21
-759.64452536443287
 31
0.0
  0
POLYLINE
  5
AC
100
AcDbEntity
  8
一般
370
               5
390
0
  6
Continuous
 62
               7
100
AcDb2dPolyline
 66
               1
 10
0.0
 20
0.0
 30
0.0
 70
               1
 75
               5
  0
VERTEX
  5
AD
100
AcDbEntity
  8
一般
370
               5
390
0
  6
Continuous
 62
               7
100
AcDbVertex
100
AcDb2dVertex
 10
-1430.6386948943277
 20
1186.3712003316552
 30
0.0
  0
VERTEX
  5
AE
100
AcDbEntity
  8
一般
370
               5
390
0
  6
Continuous
 62
               7
100
AcDbVertex
100
AcDb2dVertex
 10
-1428.6386948943277
 20
1186.3712003316552
 30
0.0
  0
VERTEX
  5
AF
100
AcDbEntity
  8
一般
370
               5
390
0
  6
Continuous
 62
               7
100
AcDbVertex
100
AcDb2dVertex
 10
-1428.6386948943277
 20
-583.62879966834475
 30
0.0
  0
VERTEX
  5
B0
100
AcDbEntity
  8
一般
370
               5
390
0
  6
Continuous
 62
               7
100
AcDbVertex
100
AcDb2dVertex
 10
-1430.6386948943277
 20
-583.62879966834475
 30
0.0
  0
SEQEND
  5
B1
100
AcDbEntity
  8
一般
370
               5
390
0
  6
Continuous
 62
               7
  0
POLYLINE
  5
B3
100
AcDbEntity
  8
一般
370
              18
390
0
  6
Continuous
 62
               7
100
AcDb2dPolyline
 66
               1
 10
0.0
 20
0.0
 30
0.0
 70
               1
 75
               5
  0
VERTEX
  5
B4
100
AcDbEntity
  8
一般
370
              18
390
0
  6
Continuous
 62
               7
100
AcDbVertex
100
AcDb2dVertex
 10
-727.38410905460364
 20
2319.4578154101773
 30
0.0
  0
VERTEX
  5
B5
100
AcDbEntity
  8
一般
370
              18
390
0
  6
Continuous
 62
               7
100
AcDbVertex
100
AcDb2dVertex
 10
28.615890945396359
 20
2319.4578154101773
 30
0.0
  0
VERTEX
  5
B6
100
AcDbEntity
  8
一般
370
              18
390
0
  6
Continuous
 62
               7
100
AcDbVertex
100
AcDb2dVertex
 10
28.615890945396359
 20
1764.457815410185
 30
0.0
  0
VERTEX
  5
B7
100
AcDbEntity
  8
一般
370
              18
390
0
  6
Continuous
 62
               7
100
AcDbVertex
100
AcDb2dVertex
 10
-727.38410905460364
 20
1764.457815410185
 30
0.0
  0
SEQEND
  5
B8
100
AcDbEntity
  8
一般
370
              18
390
0
  6
Continuous
 62
               7
  0
POLYLINE
  5
BA
100
AcDbEntity
  8
一般
370
              15
390
0
  6
Continuous
 62
               7
100
AcDb2dPolyline
 66
               1
 10
0.0
 20
0.0
 30
0.0
 70
               1
 75
               5
  0
VERTEX
  5
BB
100
AcDbEntity
  8
一般
370
              15
390
0
  6
Continuous
 62
               7
100
AcDbVertex
100
AcDb2dVertex
 10
-724.32655687172132
 20
1764.4625928205392
 30
0.0
  0
VERTEX
  5
BC
100
AcDbEntity
  8
一般
370
              15
390
0
  6
Continuous
 62
               7
100
AcDbVertex
100
AcDb2dVertex
 10
25.673443128278677
 20
1764.4625928205392
 30
0.0
  0
VERTEX
  5
BD
100
AcDbEntity
  8
一般
370
              15
390
0
  6
Continuous
 62
               7
100
AcDbVertex
100
AcDb2dVertex
 10
25.673443128278677
 20
1743.4625928205396
 30
0.0
  0
VERTEX
  5
BE
100
AcDbEntity
  8
一般
370
              15
390
0
  6
Continuous
 62
               7
100
AcDbVertex
100
AcDb2dVertex
 10
-724.32655687172132
 20
1743.4625928205396
 30
0.0
  0
SEQEND
  5
BF
100
AcDbEntity
  8
一般
370
              15
390
0
  6
Continuous
 62
               7
  0
POLYLINE
  5
C1
100
AcDbEntity
  8
一般
370
              15
390
0
  6
Continuous
 62
               7
100
AcDb2dPolyline
 66
               1
 10
0.0
 20
0.0
 30
0.0
 70
               1
 75
               5
  0
VERTEX
  5
C2
100
AcDbEntity
  8
一般
370
              15
390
0
  6
Continuous
 62
               7
100
AcDbVertex
100
AcDb2dVertex
 10
-724.32655687172132
 20
1743.4625928205396
 30
0.0
  0
VERTEX
  5
C3
100
AcDbEntity
  8
一般
370
              15
390
0
  6
Continuous
 62
               7
100
AcDbVertex
100
AcDb2dVertex
 10
25.673443128278677
 20
1743.4625928205396
 30
0.0
  0
VERTEX
  5
C4
100
AcDbEntity
  8
一般
370
              15
390
0
  6
Continuous
 62
               7
100
AcDbVertex
100
AcDb2dVertex
 10
25.673443128278677
 20
1713.4625928205401
 30
0.0
  0
VERTEX
  5
C5
100
AcDbEntity
  8
一般
370
              15
390
0
  6
Continuous
 62
               7
100
AcDbVertex
100
AcDb2dVertex
 10
-724.32655687172132
 20
1713.4625928205401
 30
0.0
  0
SEQEND
  5
C6
100
AcDbEntity
  8
一般
370
              15
390
0
  6
Continuous
 62
               7
  0
POLYLINE
  5
C8
100
AcDbEntity
  8
一般
370
              18
390
0
  6
Continuous
 62
               7
100
AcDb2dPolyline
 66
               1
 10
0.0
 20
0.0
 30
0.0
 70
               1
 75
               5
  0
VERTEX
  5
C9
100
AcDbEntity
  8
一般
370
              18
390
0
  6
Continuous
 62
               7
100
AcDbVertex
100
AcDb2dVertex
 10
-727.35609863851391
 20
1266.3554746355671
 30
0.0
  0
VERTEX
  5
CA
100
AcDbEntity
  8
一般
370
              18
390
0
  6
Continuous
 62
               7
100
AcDbVertex
100
AcDb2dVertex
 10
28.643901361486087
 20
1266.3554746355671
 30
0.0
  0
VERTEX
  5
CB
100
AcDbEntity
  8
一般
370
              18
390
0
  6
Continuous
 62
               7
100
AcDbVertex
100
AcDb2dVertex
 10
28.643901361486087
 20
-834.64452536443287
 30
0.0
  0
VERTEX
  5
CC
100
AcDbEntity
  8
一般
370
              18
390
0
  6
Continuous
 62
               7
100
AcDbVertex
100
AcDb2dVertex
 10
-727.35609863851391
 20
-834.64452536443287
 30
0.0
  0
SEQEND
  5
CD
100
AcDbEntity
  8
一般
370
              18
390
0
  6
Continuous
 62
               7
  0
LINE
  5
CF
100
AcDbEntity
  8
一般
370
              18
390
0
  6
Continuous
 62
               7
100
AcDbLine
 10
403.19356032004305
 20
-584.66959197526398
 30
0.0
 11
958.19356032004305
 21
-584.66959197526398
 31
0.0
  0
LINE
  5
D0
100
AcDbEntity
  8
一般
370
              18
390
0
  6
Continuous
 62
               7
100
AcDbLine
 10
28.604914993755528
 20
-584.66959197526398
 30
0.0
 11
-574.39508500624402
 21
-584.66959197526398
 31
0.0
  0
LINE
  5
D1
100
AcDbEntity
  8
一般
370
              18
390
0
  6
Continuous
 62
               7
100
AcDbLine
 10
28.604914993755528
 20
-679.66959197526398
 30
0.0
 11
-574.39508500624402
 21
-679.66959197526398
 31
0.0
  0
LINE
  5
D2
100
AcDbEntity
  8
一般
370
              18
390
0
  6
Continuous
 62
               7
100
AcDbLine
 10
28.604914993755528
 20
-759.66959197526398
 30
0.0
 11
-727.39508500624493
 21
-759.66959197526398
 31
0.0
  0
POLYLINE
  5
D3
100
AcDbEntity
  8
寸法
370
              15
390
0
  6
Continuous
 62
               7
100
AcDb2dPolyline
 66
               1
 10
0.0
 20
0.0
 30
0.0
 70
               1
 75
               5
  0
VERTEX
  5
D4
100
AcDbEntity
  8
寸法
370
              15
390
0
  6
Continuous
 62
               7
100
AcDbVertex
100
AcDb2dVertex
 10
-14.371424902760054
 20
-855.08554359516393
 30
0.0
  0
VERTEX
  5
D5
100
AcDbEntity
  8
寸法
370
              15
390
0
  6
Continuous
 62
               7
100
AcDbVertex
100
AcDb2dVertex
 10
15.628575097239946
 20
-855.08554359516393
 30
0.0
  0
VERTEX
  5
D6
100
AcDbEntity
  8
寸法
370
              15
390
0
  6
Continuous
 62
               7
100
AcDbVertex
100
AcDb2dVertex
 10
15.628575097239946
 20
-858.58554359516393
 30
0.0
  0
VERTEX
  5
D7
100
AcDbEntity
  8
寸法
370
              15
390
0
  6
Continuous
 62
               7
100
AcDbVertex
100
AcDb2dVertex
 10
-14.371424902760054
 20
-858.58554359516393
 30
0.0
  0
SEQEND
  5
D8
100
AcDbEntity
  8
寸法
370
              15
390
0
  6
Continuous
 62
               7
  0
WIPEOUT
  5
DA
100
AcDbEntity
  8
寸法
370
              15
390
0
  6
Continuous
 62
               7
 92
        0
100
AcDbWipeout
 90
        0
 10
-5.7139036609926279
 20
-855.08554359516393
 30
0.0
 11
20.471841620039868
 21
0.0
 31
0.0
 12
0.0
 22
20.471841620039868
 32
0.0
 13
1.0
 23
1.0
340
0
 70
               7
280
               1
281
              50
282
              50
283
               0
360
0
 71
               2
 91
        5
 14
-0.5
 24
-0.5
 14
0.1350185899872491
 24
-0.5
 14
0.1350185899872491
 24
0.5
 14
-0.5
 24
0.5
 14
-0.5
 24
-0.5
  0
POLYLINE
  5
DB
100
AcDbEntity
  8
寸法
370
              15
390
0
  6
Continuous
 62
               7
100
AcDb2dPolyline
 66
               1
 10
0.0
 20
0.0
 30
0.0
 70
               1
 75
               5
  0
VERTEX
  5
DC
100
AcDbEntity
  8
寸法
370
              15
390
0
  6
Continuous
 62
               7
100
AcDbVertex
100
AcDb2dVertex
 10
-5.7139036609926279
 20
-834.61370197512406
 30
0.0
  0
VERTEX
  5
DD
100
AcDbEntity
  8
寸法
370
              15
390
0
  6
Continuous
 62
               7
100
AcDbVertex
100
AcDb2dVertex
 10
7.2860963390073721
 20
-834.61370197512406
 30
0.0
  0
VERTEX
  5
DE
100
AcDbEntity
  8
寸法
370
              15
390
0
  6
Continuous
 62
               7
100
AcDbVertex
100
AcDb2dVertex
 10
7.2860963390073721
 20
-855.08554359516393
 30
0.0
  0
VERTEX
  5
DF
100
AcDbEntity
  8
寸法
370
              15
390
0
  6
Continuous
 62
               7
100
AcDbVertex
100
AcDb2dVertex
 10
-5.7139036609926279
 20
-855.08554359516393
 30
0.0
  0
SEQEND
  5
E0
100
AcDbEntity
  8
寸法
370
              15
390
0
  6
Continuous
 62
               7
  0
POLYLINE
  5
E2
100
AcDbEntity
  8
寸法
370
              15
390
0
  6
Continuous
 62
               7
100
AcDb2dPolyline
 66
               1
 10
0.0
 20
0.0
 30
0.0
 70
               1
 75
               5
  0
VERTEX
  5
E3
100
AcDbEntity
  8
寸法
370
              15
390
0
  6
Continuous
 62
               7
100
AcDbVertex
100
AcDb2dVertex
 10
-714.43214728465091
 20
-855.08554359516393
 30
0.0
  0
VERTEX
  5
E4
100
AcDbEntity
  8
寸法
370
              15
390
0
  6
Continuous
 62
               7
100
AcDbVertex
100
AcDb2dVertex
 10
-684.43214728465091
 20
-855.08554359516393
 30
0.0
  0
VERTEX
  5
E5
100
AcDbEntity
  8
寸法
370
              15
390
0
  6
Continuous
 62
               7
100
AcDbVertex
100
AcDb2dVertex
 10
-684.43214728465091
 20
-858.58554359516393
 30
0.0
  0
VERTEX
  5
E6
100
AcDbEntity
  8
寸法
370
              15
390
0
  6
Continuous
 62
               7
100
AcDbVertex
100
AcDb2dVertex
 10
-714.43214728465091
 20
-858.58554359516393
 30
0.0
  0
SEQEND
  5
E7
100
AcDbEntity
  8
寸法
370
              15
390
0
  6
Continuous
 62
               7
  0
WIPEOUT
  5
E9
100
AcDbEntity
  8
寸法
370
              15
390
0
  6
Continuous
 62
               7
 92
        0
100
AcDbWipeout
 90
        0
 10
-705.77462604288348
 20
-855.08554359516393
 30
0.0
 11
20.471841620039868
 21
0.0
 31
0.0
 12
0.0
 22
20.471841620039868
 32
0.0
 13
1.0
 23
1.0
340
0
 70
               7
280
               1
281
              50
282
              50
283
               0
360
0
 71
               2
 91
        5
 14
-0.5
 24
-0.5
 14
0.1350185899872491
 24
-0.5
 14
0.1350185899872491
 24
0.5
 14
-0.5
 24
0.5
 14
-0.5
 24
-0.5
  0
POLYLINE
  5
EA
100
AcDbEntity
  8
寸法
370
              15
390
0
  6
Continuous
 62
               7
100
AcDb2dPolyline
 66
               1
 10
0.0
 20
0.0
 30
0.0
 70
               1
 75
               5
  0
VERTEX
  5
EB
100
AcDbEntity
  8
寸法
370
              15
390
0
  6
Continuous
 62
               7
100
AcDbVertex
100
AcDb2dVertex
 10
-705.77462604288348
 20
-834.61370197512406
 30
0.0
  0
VERTEX
  5
EC
100
AcDbEntity
  8
寸法
370
              15
390
0
  6
Continuous
 62
               7
100
AcDbVertex
100
AcDb2dVertex
 10
-692.77462604288348
 20
-834.61370197512406
 30
0.0
  0
VERTEX
  5
ED
100
AcDbEntity
  8
寸法
370
              15
390
0
  6
Continuous
 62
               7
100
AcDbVertex
100
AcDb2dVertex
 10
-692.77462604288348
 20
-855.08554359516393
 30
0.0
  0
VERTEX
  5
EE
100
AcDbEntity
  8
寸法
370
              15
390
0
  6
Continuous
 62
               7
100
AcDbVertex
100
AcDb2dVertex
 10
-705.77462604288348
 20
-855.08554359516393
 30
0.0
  0
SEQEND
  5
EF
100
AcDbEntity
  8
寸法
370
              15
390
0
  6
Continuous
 62
               7
  0
LINE
  5
F1
100
AcDbEntity
  8
一般
370
               5
390
0
  6
STYLE_06
 62
               7
100
AcDbLine
 10
28.617687391533991
 20
1186.0212003316628
 30
0.0
 11
-574.18231260846528
 21
301.22120033166402
 31
0.0
  0
LINE
  5
F2
100
AcDbEntity
  8
一般
370
               5
390
0
  6
STYLE_06
 62
               7
100
AcDbLine
 10
-574.18231260846574
 20
301.02120033166398
 30
0.0
 11
28.617687391533536
 21
-583.77879966834462
 31
0.0
  0
LINE
  5
F3
100
AcDbEntity
  8
一般
370
              18
390
0
  6
Continuous
 62
               7
100
AcDbLine
 10
403.19356032004305
 20
-584.66959197526398
 30
0.0
 11
403.19356032004305
 21
1266.3554746355749
 31
0.0
  0
LINE
  5
F4
100
AcDbEntity
  8
一般
370
              18
390
0
  6
Continuous
 62
               7
100
AcDbLine
 10
403.19356032004305
 20
1266.3554746355749
 30
0.0
 11
958.19356032004305
 21
1266.3554746355749
 31
0.0
  0
POLYLINE
  5
F5
100
AcDbEntity
  8
寸法
370
              15
390
0
  6
STYLE_05
 62
               7
100
AcDb2dPolyline
 66
               1
 10
0.0
 20
0.0
 30
0.0
 70
               1
 75
               5
  0
VERTEX
  5
F6
100
AcDbEntity
  8
寸法
370
              15
390
0
  6
STYLE_05
 62
               7
100
AcDbVertex
100
AcDb2dVertex
 10
918.20857093290522
 20
1254.2212003316627
 30
0.0
  0
VERTEX
  5
F7
100
AcDbEntity
  8
寸法
370
              15
390
0
  6
STYLE_05
 62
               7
100
AcDbVertex
100
AcDb2dVertex
 10
958.4088135187867
 20
1254.2212003316627
 30
0.0
  0
VERTEX
  5
F8
100
AcDbEntity
  8
寸法
370
              15
390
0
  6
STYLE_05
 62
               7
100
AcDbVertex
100
AcDb2dVertex
 10
958.4088135187867
 20
1207.0550528903486
 30
0.0
  0
VERTEX
  5
F9
100
AcDbEntity
  8
寸法
370
              15
390
0
  6
STYLE_05
 62
               7
100
AcDbVertex
100
AcDb2dVertex
 10
918.20857093290522
 20
1207.0550528903486
 30
0.0
  0
SEQEND
  5
FA
100
AcDbEntity
  8
寸法
370
              15
390
0
  6
STYLE_05
 62
               7
  0
LINE
  5
FC
100
AcDbEntity
  8
一般
370
              18
390
0
  6
Continuous
 62
               7
100
AcDbLine
 10
958.19356032004305
 20
-584.66959197526398
 30
0.0
 11
958.19356032004305
 21
1266.3554746355749
 31
0.0
  0
POLYLINE
  5
FD
100
AcDbEntity
  8
一般
370
              15
390
0
  6
Continuous
 62
               7
100
AcDb2dPolyline
 66
               1
 10
0.0
 20
0.0
 30
0.0
 70
               1
 75
               5
  0
VERTEX
  5
FE
100
AcDbEntity
  8
一般
370
              15
390
0
  6
Continuous
 62
               7
100
AcDbVertex
100
AcDb2dVertex
 10
958.18932642123593
 20
1186.3712003316552
 30
0.0
  0
VERTEX
  5
FF
100
AcDbEntity
  8
一般
370
              15
390
0
  6
Continuous
 62
               7
100
AcDbVertex
100
AcDb2dVertex
 10
979.18932642123605
 20
1186.3712003316552
 30
0.0
  0
VERTEX
  5
100
100
AcDbEntity
  8
一般
370
              15
390
0
  6
Continuous
 62
               7
100
AcDbVertex
100
AcDb2dVertex
 10
979.18932642123605
 20
-560.62879966834475
 30
0.0
  0
VERTEX
  5
101
100
AcDbEntity
  8
一般
370
              15
390
0
  6
Continuous
 62
               7
100
AcDbVertex
100
AcDb2dVertex
 10
958.18932642123593
 20
-560.62879966834475
 30
0.0
  0
SEQEND
  5
102
100
AcDbEntity
  8
一般
370
              15
390
0
  6
Continuous
 62
               7
  0
POLYLINE
  5
104
100
AcDbEntity
  8
一般
370
              15
390
0
  6
Continuous
 62
               7
100
AcDb2dPolyline
 66
               1
 10
0.0
 20
0.0
 30
0.0
 70
               1
 75
               5
  0
VERTEX
  5
105
100
AcDbEntity
  8
一般
370
              15
390
0
  6
Continuous
 62
               7
100
AcDbVertex
100
AcDb2dVertex
 10
979.18932642123593
 20
1186.3712003316552
 30
0.0
  0
VERTEX
  5
106
100
AcDbEntity
  8
一般
370
              15
390
0
  6
Continuous
 62
               7
100
AcDbVertex
100
AcDb2dVertex
 10
1009.1893264212362
 20
1186.3712003316552
 30
0.0
  0
VERTEX
  5
107
100
AcDbEntity
  8
一般
370
              15
390
0
  6
Continuous
 62
               7
100
AcDbVertex
100
AcDb2dVertex
 10
1009.1893264212362
 20
-583.62879966834475
 30
0.0
  0
VERTEX
  5
108
100
AcDbEntity
  8
一般
370
              15
390
0
  6
Continuous
 62
               7
100
AcDbVertex
100
AcDb2dVertex
 10
979.18932642123593
 20
-583.62879966834475
 30
0.0
  0
SEQEND
  5
109
100
AcDbEntity
  8
一般
370
              15
390
0
  6
Continuous
 62
               7
  0
POLYLINE
  5
10B
100
AcDbEntity
  8
一般
370
               5
390
0
  6
Continuous
 62
               7
100
AcDb2dPolyline
 66
               1
 10
0.0
 20
0.0
 30
0.0
 70
               1
 75
               5
  0
VERTEX
  5
10C
100
AcDbEntity
  8
一般
370
               5
390
0
  6
Continuous
 62
               7
100
AcDbVertex
100
AcDb2dVertex
 10
1009.1306634279159
 20
1186.3712003316552
 30
0.0
  0
VERTEX
  5
10D
100
AcDbEntity
  8
一般
370
               5
390
0
  6
Continuous
 62
               7
100
AcDbVertex
100
AcDb2dVertex
 10
1011.1306634279159
 20
1186.3712003316552
 30
0.0
  0
VERTEX
  5
10E
100
AcDbEntity
  8
一般
370
               5
390
0
  6
Continuous
 62
               7
100
AcDbVertex
100
AcDb2dVertex
 10
1011.1306634279159
 20
-583.62879966834475
 30
0.0
  0
VERTEX
  5
10F
100
AcDbEntity
  8
一般
370
               5
390
0
  6
Continuous
 62
               7
100
AcDbVertex
100
AcDb2dVertex
 10
1009.1306634279159
 20
-583.62879966834475
 30
0.0
  0
SEQEND
  5
110
100
AcDbEntity
  8
一般
370
               5
390
0
  6
Continuous
 62
               7
  0
WIPEOUT
  5
112
100
AcDbEntity
  8
一般
370
              18
390
0
  6
Continuous
 62
               7
 92
        0
100
AcDbWipeout
 90
        0
 10
-727.34512268687263
 20
-755.82646560885996
 30
0.0
 11
2029.0
 21
0.0
 31
0.0
 12
0.0
 22
2029.0
 32
0.0
 13
1.0
 23
1.0
340
0
 70
               7
280
               1
281
              50
282
              50
283
               0
360
0
 71
               2
 91
        5
 14
-0.5
 24
-0.5
 14
-0.1274026614095614
 24
-0.5
 14
-0.1274026614095614
 24
0.5
 14
-0.5
 24
0.5
 14
-0.5
 24
-0.5
  0
POLYLINE
  5
113
100
AcDbEntity
  8
一般
370
              18
390
0
  6
Continuous
 62
               7
100
AcDb2dPolyline
 66
               1
 10
0.0
 20
0.0
 30
0.0
 70
               1
 75
               5
  0
VERTEX
  5
114
100
AcDbEntity
  8
一般
370
              18
390
0
  6
Continuous
 62
               7
100
AcDbVertex
100
AcDb2dVertex
 10
-727.34512268687263
 20
1273.17353439114
 30
0.0
  0
VERTEX
  5
115
100
AcDbEntity
  8
一般
370
              18
390
0
  6
Continuous
 62
               7
100
AcDbVertex
100
AcDb2dVertex
 10
28.654877313127372
 20
1273.17353439114
 30
0.0
  0
VERTEX
  5
116
100
AcDbEntity
  8
一般
370
              18
390
0
  6
Continuous
 62
               7
100
AcDbVertex
100
AcDb2dVertex
 10
28.654877313127372
 20
-755.82646560885996
 30
0.0
  0
VERTEX
  5
117
100
AcDbEntity
  8
一般
370
              18
390
0
  6
Continuous
 62
               7
100
AcDbVertex
100
AcDb2dVertex
 10
-727.34512268687263
 20
-755.82646560885996
 30
0.0
  0
SEQEND
  5
118
100
AcDbEntity
  8
一般
370
              18
390
0
  6
Continuous
 62
               7
  0
WIPEOUT
  5
11A
100
AcDbEntity
  8
一般
370
              15
390
0
  6
Continuous
 62
               7
 92
        0
100
AcDbWipeout
 90
        0
 10
1011.3017838690112
 20
-755.82646560885996
 30
0.0
 11
2029.0
 21
0.0
 31
0.0
 12
0.0
 22
2029.0
 32
0.0
 13
1.0
 23
1.0
340
0
 70
               7
280
               1
281
              50
282
              50
283
               0
360
0
 71
               2
 91
        5
 14
-0.5
 24
-0.5
 14
-0.4906357811729916
 24
-0.5
 14
-0.4906357811729916
 24
0.5
 14
-0.5
 24
0.5
 14
-0.5
 24
-0.5
  0
POLYLINE
  5
11B
100
AcDbEntity
  8
一般
370
              15
390
0
  6
Continuous
 62
               7
100
AcDb2dPolyline
 66
               1
 10
0.0
 20
0.0
 30
0.0
 70
               1
 75
               5
  0
VERTEX
  5
11C
100
AcDbEntity
  8
一般
370
              15
390
0
  6
Continuous
 62
               7
100
AcDbVertex
100
AcDb2dVertex
 10
1011.3017838690112
 20
1273.17353439114
 30
0.0
  0
VERTEX
  5
11D
100
AcDbEntity
  8
一般
370
              15
390
0
  6
Continuous
 62
               7
100
AcDbVertex
100
AcDb2dVertex
 10
1030.3017838690112
 20
1273.17353439114
 30
0.0
  0
VERTEX
  5
11E
100
AcDbEntity
  8
一般
370
              15
390
0
  6
Continuous
 62
               7
100
AcDbVertex
100
AcDb2dVertex
 10
1030.3017838690112
 20
-755.82646560885996
 30
0.0
  0
VERTEX
  5
11F
100
AcDbEntity
  8
一般
370
              15
390
0
  6
Continuous
 62
               7
100
AcDbVertex
100
AcDb2dVertex
 10
1011.3017838690112
 20
-755.82646560885996
 30
0.0
  0
SEQEND
  5
120
100
AcDbEntity
  8
一般
370
              15
390
0
  6
Continuous
 62
               7
  0
WIPEOUT
  5
122
100
AcDbEntity
  8
寸法
370
              15
390
0
  6
Continuous
 62
               7
 92
        0
100
AcDbWipeout
 90
        0
 10
958.40881351878681
 20
1207.2212003316627
 30
0.0
 11
50.836575494950694
 21
0.0
 31
0.0
 12
0.0
 22
50.836575494950694
 32
0.0
 13
1.0
 23
1.0
340
0
 70
               7
280
               1
281
              50
282
              50
283
               0
360
0
 71
               2
 91
        5
 14
-0.5
 24
-0.4245311971233875
 14
0.5
 24
-0.4245311971233875
 14
0.5
 24
0.5
 14
-0.5
 24
0.5
 14
-0.5
 24
-0.4245311971233875
  0
POLYLINE
  5
123
100
AcDbEntity
  8
寸法
370
              15
390
0
  6
Continuous
 62
               7
100
AcDb2dPolyline
 66
               1
 10
0.0
 20
0.0
 30
0.0
 70
               1
 75
               5
  0
VERTEX
  5
124
100
AcDbEntity
  8
寸法
370
              15
390
0
  6
Continuous
 62
               7
100
AcDbVertex
100
AcDb2dVertex
 10
958.40881351878681
 20
1254.2212003316629
 30
0.0
  0
VERTEX
  5
125
100
AcDbEntity
  8
寸法
370
              15
390
0
  6
Continuous
 62
               7
100
AcDbVertex
100
AcDb2dVertex
 10
1009.2453890137375
 20
1254.2212003316629
 30
0.0
  0
VERTEX
  5
126
100
AcDbEntity
  8
寸法
370
              15
390
0
  6
Continuous
 62
               7
100
AcDbVertex
100
AcDb2dVertex
 10
1009.2453890137375
 20
1207.2212003316627
 30
0.0
  0
VERTEX
  5
127
100
AcDbEntity
  8
寸法
370
              15
390
0
  6
Continuous
 62
               7
100
AcDbVertex
100
AcDb2dVertex
 10
958.40881351878681
 20
1207.2212003316627
 30
0.0
  0
SEQEND
  5
128
100
AcDbEntity
  8
寸法
370
              15
390
0
  6
Continuous
 62
               7
  0
WIPEOUT
  5
12A
100
AcDbEntity
  8
寸法
370
              15
390
0
  6
Continuous
 62
               7
 92
        0
100
AcDbWipeout
 90
        0
 10
989.14555622402099
 20
1186.3255561501892
 30
0.0
 11
54.999999999999091
 21
0.0
 31
0.0
 12
0.0
 22
54.999999999999091
 32
0.0
 13
1.0
 23
1.0
340
0
 70
               7
280
               1
281
              50
282
              50
283
               0
360
0
 71
               2
 91
        5
 14
-0.5
 24
-0.5
 14
-0.1363636363636304
 24
-0.5
 14
-0.1363636363636304
 24
0.5
 14
-0.5
 24
0.5
 14
-0.5
 24
-0.5
  0
POLYLINE
  5
12B
100
AcDbEntity
  8
寸法
370
              15
390
0
  6
Continuous
 62
               7
100
AcDb2dPolyline
 66
               1
 10
0.0
 20
0.0
 30
0.0
 70
               1
 75
               5
  0
VERTEX
  5
12C
100
AcDbEntity
  8
寸法
370
              15
390
0
  6
Continuous
 62
               7
100
AcDbVertex
100
AcDb2dVertex
 10
989.14555622402099
 20
1241.3255561501883
 30
0.0
  0
VERTEX
  5
12D
100
AcDbEntity
  8
寸法
370
              15
390
0
  6
Continuous
 62
               7
100
AcDbVertex
100
AcDb2dVertex
 10
1009.145556224021
 20
1241.3255561501883
 30
0.0
  0
VERTEX
  5
12E
100
AcDbEntity
  8
寸法
370
              15
390
0
  6
Continuous
 62
               7
100
AcDbVertex
100
AcDb2dVertex
 10
1009.145556224021
 20
1186.3255561501892
 30
0.0
  0
VERTEX
  5
12F
100
AcDbEntity
  8
寸法
370
              15
390
0
  6
Continuous
 62
               7
100
AcDbVertex
100
AcDb2dVertex
 10
989.14555622402099
 20
1186.3255561501892
 30
0.0
  0
SEQEND
  5
130
100
AcDbEntity
  8
寸法
370
              15
390
0
  6
Continuous
 62
               7
  0
WIPEOUT
  5
132
100
AcDbEntity
  8
寸法
370
              15
390
0
  6
Continuous
 62
               7
 92
        0
100
AcDbWipeout
 90
        0
 10
-1481.6402083309595
 20
1207.2212003316627
 30
0.0
 11
50.836575494949557
 21
0.0
 31
0.0
 12
0.0
 22
50.836575494949557
 32
0.0
 13
1.0
 23
1.0
340
0
 70
               7
280
               1
281
              50
282
              50
283
               0
360
0
 71
               2
 91
        5
 14
-0.5
 24
-0.4245311971234081
 14
0.5
 24
-0.4245311971234081
 14
0.5
 24
0.5
 14
-0.5
 24
0.5
 14
-0.5
 24
-0.4245311971234081
  0
POLYLINE
  5
133
100
AcDbEntity
  8
寸法
370
              15
390
0
  6
Continuous
 62
               7
100
AcDb2dPolyline
 66
               1
 10
0.0
 20
0.0
 30
0.0
 70
               1
 75
               5
  0
VERTEX
  5
134
100
AcDbEntity
  8
寸法
370
              15
390
0
  6
Continuous
 62
               7
100
AcDbVertex
100
AcDb2dVertex
 10
-1481.6402083309595
 20
1254.2212003316629
 30
0.0
  0
VERTEX
  5
135
100
AcDbEntity
  8
寸法
370
              15
390
0
  6
Continuous
 62
               7
100
AcDbVertex
100
AcDb2dVertex
 10
-1430.8036328360099
 20
1254.2212003316629
 30
0.0
  0
VERTEX
  5
136
100
AcDbEntity
  8
寸法
370
              15
390
0
  6
Continuous
 62
               7
100
AcDbVertex
100
AcDb2dVertex
 10
-1430.8036328360099
 20
1207.2212003316627
 30
0.0
  0
VERTEX
  5
137
100
AcDbEntity
  8
寸法
370
              15
390
0
  6
Continuous
 62
               7
100
AcDbVertex
100
AcDb2dVertex
 10
-1481.6402083309595
 20
1207.2212003316627
 30
0.0
  0
SEQEND
  5
138
100
AcDbEntity
  8
寸法
370
              15
390
0
  6
Continuous
 62
               7
  0
POLYLINE
  5
13A
100
AcDbEntity
  8
寸法
370
              15
390
0
  6
STYLE_05
 62
               7
100
AcDb2dPolyline
 66
               1
 10
0.0
 20
0.0
 30
0.0
 70
               1
 75
               5
  0
VERTEX
  5
13B
100
AcDbEntity
  8
寸法
370
              15
390
0
  6
STYLE_05
 62
               7
100
AcDbVertex
100
AcDb2dVertex
 10
-1521.8404509168399
 20
1254.2212003316627
 30
0.0
  0
VERTEX
  5
13C
100
AcDbEntity
  8
寸法
370
              15
390
0
  6
STYLE_05
 62
               7
100
AcDbVertex
100
AcDb2dVertex
 10
-1481.6402083309595
 20
1254.2212003316627
 30
0.0
  0
VERTEX
  5
13D
100
AcDbEntity
  8
寸法
370
              15
390
0
  6
STYLE_05
 62
               7
100
AcDbVertex
100
AcDb2dVertex
 10
-1481.6402083309595
 20
1207.0550528903486
 30
0.0
  0
VERTEX
  5
13E
100
AcDbEntity
  8
寸法
370
              15
390
0
  6
STYLE_05
 62
               7
100
AcDbVertex
100
AcDb2dVertex
 10
-1521.8404509168399
 20
1207.0550528903486
 30
0.0
  0
SEQEND
  5
13F
100
AcDbEntity
  8
寸法
370
              15
390
0
  6
STYLE_05
 62
               7
  0
WIPEOUT
  5
141
100
AcDbEntity
  8
寸法
370
              15
390
0
  6
Continuous
 62
               7
 92
        0
100
AcDbWipeout
 90
        0
 10
-1450.7800002847061
 20
1186.3255561501892
 30
0.0
 11
54.999999999999091
 21
0.0
 31
0.0
 12
0.0
 22
54.999999999999091
 32
0.0
 13
1.0
 23
1.0
340
0
 70
               7
280
               1
281
              50
282
              50
283
               0
360
0
 71
               2
 91
        5
 14
-0.5
 24
-0.5
 14
-0.1363636363636304
 24
-0.5
 14
-0.1363636363636304
 24
0.5
 14
-0.5
 24
0.5
 14
-0.5
 24
-0.5
  0
POLYLINE
  5
142
100
AcDbEntity
  8
寸法
370
              15
390
0
  6
Continuous
 62
               7
100
AcDb2dPolyline
 66
               1
 10
0.0
 20
0.0
 30
0.0
 70
               1
 75
               5
  0
VERTEX
  5
143
100
AcDbEntity
  8
寸法
370
              15
390
0
  6
Continuous
 62
               7
100
AcDbVertex
100
AcDb2dVertex
 10
-1450.7800002847061
 20
1241.3255561501883
 30
0.0
  0
VERTEX
  5
144
100
AcDbEntity
  8
寸法
370
              15
390
0
  6
Continuous
 62
               7
100
AcDbVertex
100
AcDb2dVertex
 10
-1430.7800002847061
 20
1241.3255561501883
 30
0.0
  0
VERTEX
  5
145
100
AcDbEntity
  8
寸法
370
              15
390
0
  6
Continuous
 62
               7
100
AcDbVertex
100
AcDb2dVertex
 10
-1430.7800002847061
 20
1186.3255561501892
 30
0.0
  0
VERTEX
  5
146
100
AcDbEntity
  8
寸法
370
              15
390
0
  6
Continuous
 62
               7
100
AcDbVertex
100
AcDb2dVertex
 10
-1450.7800002847061
 20
1186.3255561501892
 30
0.0
  0
SEQEND
  5
147
100
AcDbEntity
  8
寸法
370
              15
390
0
  6
Continuous
 62
               7
  0
POLYLINE
  5
149
100
AcDbEntity
  8
0
370
              15
390
0
  6
Continuous
 62
               7
100
AcDb2dPolyline
 66
               1
 10
0.0
 20
0.0
 30
0.0
 70
               1
 75
               5
  0
VERTEX
  5
14A
100
AcDbEntity
  8
0
370
              15
390
0
  6
Continuous
 62
               7
100
AcDbVertex
100
AcDb2dVertex
 10
-2956.5229705054953
 20
-594.62944102099618
 30
0.0
  0
VERTEX
  5
14B
100
AcDbEntity
  8
0
370
              15
390
0
  6
Continuous
 62
               7
100
AcDbVertex
100
AcDb2dVertex
 10
-2448.9874019066951
 20
-594.62944102099618
 30
0.0
  0
VERTEX
  5
14C
100
AcDbEntity
  8
0
370
              15
390
0
  6
Continuous
 62
               7
100
AcDbVertex
100
AcDb2dVertex
 10
-2448.9874019066951
 20
-669.62944102099618
 30
0.0
  0
VERTEX
  5
14D
100
AcDbEntity
  8
0
370
              15
390
0
  6
Continuous
 62
               7
100
AcDbVertex
100
AcDb2dVertex
 10
-2956.5229705054953
 20
-669.62944102099618
 30
0.0
  0
SEQEND
  5
14E
100
AcDbEntity
  8
0
370
              15
390
0
  6
Continuous
 62
               7
  0
POLYLINE
  5
150
100
AcDbEntity
  8
0
370
              15
390
0
  6
Continuous
 62
               7
100
AcDb2dPolyline
 66
               1
 10
0.0
 20
0.0
 30
0.0
 70
               1
 75
               5
  0
VERTEX
  5
151
100
AcDbEntity
  8
0
370
              15
390
0
  6
Continuous
 62
               7
100
AcDbVertex
100
AcDb2dVertex
 10
-3184.9518333078113
 20
-584.62944102099618
 30
0.0
  0
VERTEX
  5
152
100
AcDbEntity
  8
0
370
              15
390
0
  6
Continuous
 62
               7
100
AcDbVertex
100
AcDb2dVertex
 10
-2974.9518333078113
 20
-584.62944102099618
 30
0.0
  0
VERTEX
  5
153
100
AcDbEntity
  8
0
370
              15
390
0
  6
Continuous
 62
               7
100
AcDbVertex
100
AcDb2dVertex
 10
-2974.9518333078113
 20
-654.62944102099618
 30
0.0
  0
VERTEX
  5
154
100
AcDbEntity
  8
0
370
              15
390
0
  6
Continuous
 62
               7
100
AcDbVertex
100
AcDb2dVertex
 10
-3184.9518333078113
 20
-654.62944102099618
 30
0.0
  0
SEQEND
  5
155
100
AcDbEntity
  8
0
370
              15
390
0
  6
Continuous
 62
               7
  0
LINE
  5
157
100
AcDbEntity
  8
0
370
              15
390
0
  6
Continuous
 62
               7
100
AcDbLine
 10
-2449.0229705054953
 20
-612.88128315646622
 30
0.0
 11
-2956.5229705054953
 21
-612.88128315646622
 31
0.0
  0
LINE
  5
158
100
AcDbEntity
  8
0
370
              15
390
0
  6
Continuous
 62
               7
100
AcDbLine
 10
-2449.0229705054953
 20
-631.63128315646622
 30
0.0
 11
-2956.5229705054953
 21
-631.63128315646622
 31
0.0
  0
LINE
  5
159
100
AcDbEntity
  8
0
370
              15
390
0
  6
Continuous
 62
               7
100
AcDbLine
 10
-2448.922970505495
 20
-650.38128315646622
 30
0.0
 11
-2956.5229705054953
 21
-650.38128315646622
 31
0.0
  0
WIPEOUT
  5
15A
100
AcDbEntity
  8
0
370
              15
390
0
  6
Continuous
 62
               7
 92
        0
100
AcDbWipeout
 90
        0
 10
-2812.7761447385064
 20
-669.62944102099618
 30
0.0
 11
75.0
 21
0.0
 31
0.0
 12
0.0
 22
75.0
 32
0.0
 13
1.0
 23
1.0
340
0
 70
               7
280
               1
281
              50
282
              50
283
               0
360
0
 71
               2
 91
        5
 14
-0.5
 24
-0.5
 14
-0.3666666666666667
 24
-0.5
 14
-0.3666666666666667
 24
0.5
 14
-0.5
 24
0.5
 14
-0.5
 24
-0.5
  0
POLYLINE
  5
15B
100
AcDbEntity
  8
0
370
              15
390
0
  6
Continuous
 62
               7
100
AcDb2dPolyline
 66
               1
 10
0.0
 20
0.0
 30
0.0
 70
               1
 75
               5
  0
VERTEX
  5
15C
100
AcDbEntity
  8
0
370
              15
390
0
  6
Continuous
 62
               7
100
AcDbVertex
100
AcDb2dVertex
 10
-2812.7761447385064
 20
-594.62944102099618
 30
0.0
  0
VERTEX
  5
15D
100
AcDbEntity
  8
0
370
              15
390
0
  6
Continuous
 62
               7
100
AcDbVertex
100
AcDb2dVertex
 10
-2802.7761447385064
 20
-594.62944102099618
 30
0.0
  0
VERTEX
  5
15E
100
AcDbEntity
  8
0
370
              15
390
0
  6
Continuous
 62
               7
100
AcDbVertex
100
AcDb2dVertex
 10
-2802.7761447385064
 20
-669.62944102099618
 30
0.0
  0
VERTEX
  5
15F
100
AcDbEntity
  8
0
370
              15
390
0
  6
Continuous
 62
               7
100
AcDbVertex
100
AcDb2dVertex
 10
-2812.7761447385064
 20
-669.62944102099618
 30
0.0
  0
SEQEND
  5
160
100
AcDbEntity
  8
0
370
              15
390
0
  6
Continuous
 62
               7
  0
LINE
  5
162
100
AcDbEntity
  8
一般
370
              15
390
0
  6
Continuous
 62
               7
100
AcDbLine
 10
-2448.8611879367318
 20
-689.66959197526398
 30
0.0
 11
-3164.9001743044319
 21
-689.66959197526398
 31
0.0
  0
LINE
  5
163
100
AcDbEntity
  8
一般
370
              15
390
0
  6
Continuous
 62
               7
100
AcDbLine
 10
-2448.9001743044319
 20
-749.66959197526398
 30
0.0
 11
-3164.9001743044319
 21
-749.66959197526398
 31
0.0
  0
LINE
  5
164
100
AcDbEntity
  8
0
370
              15
390
0
  6
Continuous
 62
               7
100
AcDbLine
 10
-2448.8857129390863
 20
-689.72419582180464
 30
0.0
 11
-2448.8857129390863
 21
-749.72419582180464
 31
0.0
  0
LINE
  5
165
100
AcDbEntity
  8
0
370
              15
390
0
  6
Continuous
 62
               7
100
AcDbLine
 10
-3165.4594965604729
 20
-689.72419582180464
 30
0.0
 11
-3165.4594965604729
 21
-749.72419582180464
 31
0.0
  0
LINE
  5
166
100
AcDbEntity
  8
一般
370
              15
390
0
  6
Continuous
 62
               7
100
AcDbLine
 10
-2448.9001743044319
 20
-709.66959197526398
 30
0.0
 11
-3164.9001743044319
 21
-709.66959197526398
 31
0.0
  0
LINE
  5
167
100
AcDbEntity
  8
一般
370
              15
390
0
  6
Continuous
 62
               7
100
AcDbLine
 10
-2448.9001743044319
 20
-729.66959197526398
 30
0.0
 11
-3164.9001743044319
 21
-729.66959197526398
 31
0.0
  0
WIPEOUT
  5
168
100
AcDbEntity
  8
0
370
              15
390
0
  6
Continuous
 62
               7
 92
        0
100
AcDbWipeout
 90
        0
 10
-2812.3204849499125
 20
-749.88236920029658
 30
0.0
 11
60.0
 21
0.0
 31
0.0
 12
0.0
 22
60.0
 32
0.0
 13
1.0
 23
1.0
340
0
 70
               7
280
               1
281
              50
282
              50
283
               0
360
0
 71
               2
 91
        5
 14
-0.5
 24
-0.5
 14
-0.3333333333333334
 24
-0.5
 14
-0.3333333333333334
 24
0.5
 14
-0.5
 24
0.5
 14
-0.5
 24
-0.5
  0
POLYLINE
  5
169
100
AcDbEntity
  8
0
370
              15
390
0
  6
Continuous
 62
               7
100
AcDb2dPolyline
 66
               1
 10
0.0
 20
0.0
 30
0.0
 70
               1
 75
               5
  0
VERTEX
  5
16A
100
AcDbEntity
  8
0
370
              15
390
0
  6
Continuous
 62
               7
100
AcDbVertex
100
AcDb2dVertex
 10
-2812.3204849499125
 20
-689.88236920029658
 30
0.0
  0
VERTEX
  5
16B
100
AcDbEntity
  8
0
370
              15
390
0
  6
Continuous
 62
               7
100
AcDbVertex
100
AcDb2dVertex
 10
-2802.3204849499125
 20
-689.88236920029658
 30
0.0
  0
VERTEX
  5
16C
100
AcDbEntity
  8
0
370
              15
390
0
  6
Continuous
 62
               7
100
AcDbVertex
100
AcDb2dVertex
 10
-2802.3204849499125
 20
-749.88236920029658
 30
0.0
  0
VERTEX
  5
16D
100
AcDbEntity
  8
0
370
              15
390
0
  6
Continuous
 62
               7
100
AcDbVertex
100
AcDb2dVertex
 10
-2812.3204849499125
 20
-749.88236920029658
 30
0.0
  0
SEQEND
  5
16E
100
AcDbEntity
  8
0
370
              15
390
0
  6
Continuous
 62
               7
  0
WIPEOUT
  5
170
100
AcDbEntity
  8
寸法
370
              15
390
0
  6
Continuous
 62
               7
 92
        0
100
AcDbWipeout
 90
        0
 10
-3173.6125819753943
 20
1207.2212003316627
 30
0.0
 11
188.12518006874052
 21
0.0
 31
0.0
 12
0.0
 22
188.12518006874052
 32
0.0
 13
1.0
 23
1.0
340
0
 70
               7
280
               1
281
              50
282
              50
283
               0
360
0
 71
               2
 91
        5
 14
-0.5
 24
0.2501663520915886
 14
0.5
 24
0.2501663520915886
 14
0.5
 24
0.5
 14
-0.5
 24
0.5
 14
-0.5
 24
0.2501663520915886
  0
POLYLINE
  5
171
100
AcDbEntity
  8
寸法
370
              15
390
0
  6
Continuous
 62
               7
100
AcDb2dPolyline
 66
               1
 10
0.0
 20
0.0
 30
0.0
 70
               1
 75
               5
  0
VERTEX
  5
172
100
AcDbEntity
  8
寸法
370
              15
390
0
  6
Continuous
 62
               7
100
AcDbVertex
100
AcDb2dVertex
 10
-3173.6125819753943
 20
1254.2212003316629
 30
0.0
  0
VERTEX
  5
173
100
AcDbEntity
  8
寸法
370
              15
390
0
  6
Continuous
 62
               7
100
AcDbVertex
100
AcDb2dVertex
 10
-2985.4874019066538
 20
1254.2212003316629
 30
0.0
  0
VERTEX
  5
174
100
AcDbEntity
  8
寸法
370
              15
390
0
  6
Continuous
 62
               7
100
AcDbVertex
100
AcDb2dVertex
 10
-2985.4874019066538
 20
1207.2212003316627
 30
0.0
  0
VERTEX
  5
175
100
AcDbEntity
  8
寸法
370
              15
390
0
  6
Continuous
 62
               7
100
AcDbVertex
100
AcDb2dVertex
 10
-3173.6125819753943
 20
1207.2212003316627
 30
0.0
  0
SEQEND
  5
176
100
AcDbEntity
  8
寸法
370
              15
390
0
  6
Continuous
 62
               7
  0
POLYLINE
  5
178
100
AcDbEntity
  8
0
370
              15
390
0
  6
Continuous
 62
               7
100
AcDb2dPolyline
 66
               1
 10
0.0
 20
0.0
 30
0.0
 70
               1
 75
               5
  0
VERTEX
  5
179
100
AcDbEntity
  8
0
370
              15
390
0
  6
Continuous
 62
               7
100
AcDbVertex
100
AcDb2dVertex
 10
-3184.7976177708069
 20
1266.3350652322274
 30
0.0
  0
VERTEX
  5
17A
100
AcDbEntity
  8
0
370
              15
390
0
  6
Continuous
 62
               7
100
AcDbVertex
100
AcDb2dVertex
 10
-2974.7976177708069
 20
1266.3350652322274
 30
0.0
  0
VERTEX
  5
17B
100
AcDbEntity
  8
0
370
              15
390
0
  6
Continuous
 62
               7
100
AcDbVertex
100
AcDb2dVertex
 10
-2974.7976177708069
 20
1196.335065232227
 30
0.0
  0
VERTEX
  5
17C
100
AcDbEntity
  8
0
370
              15
390
0
  6
Continuous
 62
               7
100
AcDbVertex
100
AcDb2dVertex
 10
-3184.7976177708069
 20
1196.335065232227
 30
0.0
  0
SEQEND
  5
17D
100
AcDbEntity
  8
0
370
              15
390
0
  6
Continuous
 62
               7
  0
POLYLINE
  5
17F
100
AcDbEntity
  8
0
370
              15
390
0
  6
Continuous
 62
               7
100
AcDb2dPolyline
 66
               1
 10
0.0
 20
0.0
 30
0.0
 70
               1
 75
               5
  0
VERTEX
  5
180
100
AcDbEntity
  8
0
370
              15
390
0
  6
Continuous
 62
               7
100
AcDbVertex
100
AcDb2dVertex
 10
-3177.7976177708069
 20
1259.3350652322272
 30
0.0
  0
VERTEX
  5
181
100
AcDbEntity
  8
0
370
              15
390
0
  6
Continuous
 62
               7
100
AcDbVertex
100
AcDb2dVertex
 10
-2981.7976177708069
 20
1259.3350652322272
 30
0.0
  0
VERTEX
  5
182
100
AcDbEntity
  8
0
370
              15
390
0
  6
Continuous
 62
               7
100
AcDbVertex
100
AcDb2dVertex
 10
-2981.7976177708069
 20
1203.335065232227
 30
0.0
  0
VERTEX
  5
183
100
AcDbEntity
  8
0
370
              15
390
0
  6
Continuous
 62
               7
100
AcDbVertex
100
AcDb2dVertex
 10
-3177.7976177708069
 20
1203.335065232227
 30
0.0
  0
SEQEND
  5
184
100
AcDbEntity
  8
0
370
              15
390
0
  6
Continuous
 62
               7
  0
WIPEOUT
  5
186
100
AcDbEntity
  8
寸法
370
              15
390
0
  6
Continuous
 62
               7
 92
        0
100
AcDbWipeout
 90
        0
 10
-3173.6125819753943
 20
-642.99273193241743
 30
0.0
 11
188.12518006874052
 21
0.0
 31
0.0
 12
0.0
 22
188.12518006874052
 32
0.0
 13
1.0
 23
1.0
340
0
 70
               7
280
               1
281
              50
282
              50
283
               0
360
0
 71
               2
 91
        5
 14
-0.5
 24
0.2501663520915898
 14
0.5
 24
0.2501663520915898
 14
0.5
 24
0.5
 14
-0.5
 24
0.5
 14
-0.5
 24
0.2501663520915898
  0
POLYLINE
  5
187
100
AcDbEntity
  8
寸法
370
              15
390
0
  6
Continuous
 62
               7
100
AcDb2dPolyline
 66
               1
 10
0.0
 20
0.0
 30
0.0
 70
               1
 75
               5
  0
VERTEX
  5
188
100
AcDbEntity
  8
寸法
370
              15
390
0
  6
Continuous
 62
               7
100
AcDbVertex
100
AcDb2dVertex
 10
-3173.6125819753943
 20
-595.99273193241743
 30
0.0
  0
VERTEX
  5
189
100
AcDbEntity
  8
寸法
370
              15
390
0
  6
Continuous
 62
               7
100
AcDbVertex
100
AcDb2dVertex
 10
-2985.4874019066538
 20
-595.99273193241743
 30
0.0
  0
VERTEX
  5
18A
100
AcDbEntity
  8
寸法
370
              15
390
0
  6
Continuous
 62
               7
100
AcDbVertex
100
AcDb2dVertex
 10
-2985.4874019066538
 20
-642.99273193241743
 30
0.0
  0
VERTEX
  5
18B
100
AcDbEntity
  8
寸法
370
              15
390
0
  6
Continuous
 62
               7
100
AcDbVertex
100
AcDb2dVertex
 10
-3173.6125819753943
 20
-642.99273193241743
 30
0.0
  0
SEQEND
  5
18C
100
AcDbEntity
  8
寸法
370
              15
390
0
  6
Continuous
 62
               7
  0
CIRCLE
  5
18E
102
{ACAD_REACTORS
330
18F
102
}
100
AcDbEntity
  8
0
370
               5
390
0
  6
Continuous
 62
               7
100
AcDbCircle
 10
-1941.440208330956
 20
-843.59914432669484
 30
0.0
 40
14.999999999999417
  0
HATCH
  5
18F
100
AcDbEntity
  8
0
370
               0
390
0
  6
Continuous
 62
               7
100
AcDbHatch
 10
0.0
 20
0.0
 30
0.0
210
0.0
220
0.0
230
1.0
  2
SOLID
 70
               1
 71
               1
 91
        1
 92
        1
 93
        1
 72
               2
 10
-1941.440208330956
 20
-843.59914432669484
 40
14.999999999999417
 50
0.0
 51
360.0
 73
               0
 97
        1
330
18E
 75
               0
 76
               1
 98
        1
 10
0.0
 20
0.0
  0
WIPEOUT
  5
190
100
AcDbEntity
  8
0
370
               5
390
0
  6
Continuous
 62
               7
 92
        0
100
AcDbWipeout
 90
        0
 10
-1958.940208330956
 20
-834.46782867750289
 30
0.0
 11
34.5
 21
0.0
 31
0.0
 12
0.0
 22
34.5
 32
0.0
 13
1.0
 23
1.0
340
0
 70
               7
280
               1
281
              50
282
              50
283
               0
360
0
 71
               2
 91
        5
 14
-0.5
 24
0.0507246376811594
 14
0.5
 24
0.0507246376811594
 14
0.5
 24
0.5
 14
-0.5
 24
0.5
 14
-0.5
 24
0.0507246376811594
  0
LINE
  5
191
100
AcDbEntity
  8
一般
370
              18
390
0
  6
Continuous
 62
               7
100
AcDbLine
 10
954.97270954960243
 20
-584.69149289467941
 30
0.0
 11
954.97270954960243
 21
-679.69149289467941
 31
0.0
  0
LINE
  5
192
100
AcDbEntity
  8
一般
370
              18
390
0
  6
Continuous
 62
               7
100
AcDbLine
 10
928.91370585606023
 20
-679.74830756541564
 30
0.0
 11
928.91370585606023
 21
-759.74830756541564
 31
0.0
  0
LINE
  5
193
100
AcDbEntity
  8
一般
370
              18
390
0
  6
Continuous
 62
               7
100
AcDbLine
 10
905.78751493476329
 20
-759.83354273502709
 30
0.0
 11
905.78751493476329
 21
-834.83354273502709
 31
0.0
  0
LINE
  5
194
100
AcDbEntity
  8
一般
370
              18
390
0
  6
Continuous
 62
               7
100
AcDbLine
 10
905.78751493476329
 20
-834.64452536443287
 30
0.0
 11
433.24564415577788
 21
-834.64452536443287
 31
0.0
  0
LINE
  5
195
100
AcDbEntity
  8
一般
370
              18
390
0
  6
Continuous
 62
               7
100
AcDbLine
 10
433.24564415577788
 20
-834.44367028723946
 30
0.0
 11
433.24564415577743
 21
-584.66959197526398
 31
0.0
  0
POLYLINE
  5
196
100
AcDbEntity
  8
寸法
370
              15
390
0
  6
Continuous
 62
               7
100
AcDb2dPolyline
 66
               1
 10
0.0
 20
0.0
 30
0.0
 70
               1
 75
               5
  0
VERTEX
  5
197
100
AcDbEntity
  8
寸法
370
              15
390
0
  6
Continuous
 62
               7
100
AcDbVertex
100
AcDb2dVertex
 10
877.40280526147887
 20
-855.08554359516393
 30
0.0
  0
VERTEX
  5
198
100
AcDbEntity
  8
寸法
370
              15
390
0
  6
Continuous
 62
               7
100
AcDbVertex
100
AcDb2dVertex
 10
907.40280526147899
 20
-855.08554359516393
 30
0.0
  0
VERTEX
  5
199
100
AcDbEntity
  8
寸法
370
              15
390
0
  6
Continuous
 62
               7
100
AcDbVertex
100
AcDb2dVertex
 10
907.40280526147899
 20
-858.58554359516393
 30
0.0
  0
VERTEX
  5
19A
100
AcDbEntity
  8
寸法
370
              15
390
0
  6
Continuous
 62
               7
100
AcDbVertex
100
AcDb2dVertex
 10
877.40280526147887
 20
-858.58554359516393
 30
0.0
  0
SEQEND
  5
19B
100
AcDbEntity
  8
寸法
370
              15
390
0
  6
Continuous
 62
               7
  0
WIPEOUT
  5
19D
100
AcDbEntity
  8
寸法
370
              15
390
0
  6
Continuous
 62
               7
 92
        0
100
AcDbWipeout
 90
        0
 10
885.74528401971156
 20
-855.08554359516393
 30
0.0
 11
20.471841620039868
 21
0.0
 31
0.0
 12
0.0
 22
20.471841620039868
 32
0.0
 13
1.0
 23
1.0
340
0
 70
               7
280
               1
281
              50
282
              50
283
               0
360
0
 71
               2
 91
        5
 14
-0.5
 24
-0.5
 14
0.1350185899872491
 24
-0.5
 14
0.1350185899872491
 24
0.5
 14
-0.5
 24
0.5
 14
-0.5
 24
-0.5
  0
POLYLINE
  5
19E
100
AcDbEntity
  8
寸法
370
              15
390
0
  6
Continuous
 62
               7
100
AcDb2dPolyline
 66
               1
 10
0.0
 20
0.0
 30
0.0
 70
               1
 75
               5
  0
VERTEX
  5
19F
100
AcDbEntity
  8
寸法
370
              15
390
0
  6
Continuous
 62
               7
100
AcDbVertex
100
AcDb2dVertex
 10
885.74528401971156
 20
-834.61370197512406
 30
0.0
  0
VERTEX
  5
1A0
100
AcDbEntity
  8
寸法
370
              15
390
0
  6
Continuous
 62
               7
100
AcDbVertex
100
AcDb2dVertex
 10
898.74528401971156
 20
-834.61370197512406
 30
0.0
  0
VERTEX
  5
1A1
100
AcDbEntity
  8
寸法
370
              15
390
0
  6
Continuous
 62
               7
100
AcDbVertex
100
AcDb2dVertex
 10
898.74528401971156
 20
-855.08554359516393
 30
0.0
  0
VERTEX
  5
1A2
100
AcDbEntity
  8
寸法
370
              15
390
0
  6
Continuous
 62
               7
100
AcDbVertex
100
AcDb2dVertex
 10
885.74528401971156
 20
-855.08554359516393
 30
0.0
  0
SEQEND
  5
1A3
100
AcDbEntity
  8
寸法
370
              15
390
0
  6
Continuous
 62
               7
  0
LINE
  5
1A5
100
AcDbEntity
  8
一般
370
              18
390
0
  6
Continuous
 62
               7
100
AcDbLine
 10
954.78751493476443
 20
-679.64452536443287
 30
0.0
 11
928.78751493476386
 21
-679.64452536443287
 31
0.0
  0
LINE
  5
1A6
100
AcDbEntity
  8
一般
370
              18
390
0
  6
Continuous
 62
               7
100
AcDbLine
 10
928.78751493476386
 20
-759.64452536443287
 30
0.0
 11
905.78751493476329
 21
-759.64452536443287
 31
0.0
  0
CIRCLE
  5
1A7
102
{ACAD_REACTORS
330
1A8
102
}
100
AcDbEntity
  8
0
370
               5
390
0
  6
Continuous
 62
               7
100
AcDbCircle
 10
498.17091993331917
 20
-843.59914432669484
 30
0.0
 40
14.999999999999707
  0
HATCH
  5
1A8
100
AcDbEntity
  8
0
370
               0
390
0
  6
Continuous
 62
               7
100
AcDbHatch
 10
0.0
 20
0.0
 30
0.0
210
0.0
220
0.0
230
1.0
  2
SOLID
 70
               1
 71
               1
 91
        1
 92
        1
 93
        1
 72
               2
 10
498.17091993331917
 20
-843.59914432669484
 40
14.999999999999707
 50
0.0
 51
360.0
 73
               0
 97
        1
330
1A7
 75
               0
 76
               1
 98
        1
 10
0.0
 20
0.0
  0
WIPEOUT
  5
1A9
100
AcDbEntity
  8
0
370
               5
390
0
  6
Continuous
 62
               7
 92
        0
100
AcDbWipeout
 90
        0
 10
480.67091993331962
 20
-834.46782867750289
 30
0.0
 11
34.500000000000114
 21
0.0
 31
0.0
 12
0.0
 22
34.500000000000114
 32
0.0
 13
1.0
 23
1.0
340
0
 70
               7
280
               1
281
              50
282
              50
283
               0
360
0
 71
               2
 91
        5
 14
-0.5
 24
0.0507246376811609
 14
0.5
 24
0.0507246376811609
 14
0.5
 24
0.5
 14
-0.5
 24
0.5
 14
-0.5
 24
0.0507246376811609
  0
POLYLINE
  5
1AA
100
AcDbEntity
  8
0
370
              15
390
0
  6
Continuous
 62
               7
100
AcDb2dPolyline
 66
               1
 10
0.0
 20
0.0
 30
0.0
 70
               1
 75
               5
  0
VERTEX
  5
1AB
100
AcDbEntity
  8
0
370
              15
390
0
  6
Continuous
 62
               7
100
AcDbVertex
100
AcDb2dVertex
 10
-33.252725315305725
 20
862.50981088294191
 30
0.0
  0
VERTEX
  5
1AC
100
AcDbEntity
  8
0
370
              15
390
0
  6
Continuous
 62
               7
100
AcDbVertex
100
AcDb2dVertex
 10
-19.25271531530575
 20
862.50981088294191
 30
0.0
  0
VERTEX
  5
1AD
100
AcDbEntity
  8
0
370
              15
390
0
  6
Continuous
 62
               7
100
AcDbVertex
100
AcDb2dVertex
 10
-19.25271531530575
 20
839.5088108829417
 30
0.0
  0
VERTEX
  5
1AE
100
AcDbEntity
  8
0
370
              15
390
0
  6
Continuous
 62
               7
100
AcDbVertex
100
AcDb2dVertex
 10
-33.252725315305725
 20
839.5088108829417
 30
0.0
  0
SEQEND
  5
1AF
100
AcDbEntity
  8
0
370
              15
390
0
  6
Continuous
 62
               7
  0
POLYLINE
  5
1B1
100
AcDbEntity
  8
0
370
              15
390
0
  6
Continuous
 62
               7
100
AcDb2dPolyline
 66
               1
 10
0.0
 20
0.0
 30
0.0
 70
               1
 75
               5
  0
VERTEX
  5
1B2
100
AcDbEntity
  8
0
370
              15
390
0
  6
Continuous
 62
               7
100
AcDbVertex
100
AcDb2dVertex
 10
-32.241336824722111
 20
839.50956320999774
 30
0.0
  0
VERTEX
  5
1B3
100
AcDbEntity
  8
0
370
              15
390
0
  6
Continuous
 62
               7
100
AcDbVertex
100
AcDb2dVertex
 10
-20.251336824722102
 20
839.50956320999774
 30
0.0
  0
VERTEX
  5
1B4
100
AcDbEntity
  8
0
370
              15
390
0
  6
Continuous
 62
               7
100
AcDbVertex
100
AcDb2dVertex
 10
-20.251336824722102
 20
838.50956320999774
 30
0.0
  0
VERTEX
  5
1B5
100
AcDbEntity
  8
0
370
              15
390
0
  6
Continuous
 62
               7
100
AcDbVertex
100
AcDb2dVertex
 10
-32.241336824722111
 20
838.50956320999774
 30
0.0
  0
SEQEND
  5
1B6
100
AcDbEntity
  8
0
370
              15
390
0
  6
Continuous
 62
               7
  0
POLYLINE
  5
1B8
100
AcDbEntity
  8
0
370
              15
390
0
  6
Continuous
 62
               7
100
AcDb2dPolyline
 66
               1
 10
0.0
 20
0.0
 30
0.0
 70
               1
 75
               5
  0
VERTEX
  5
1B9
100
AcDbEntity
  8
0
370
              15
390
0
  6
Continuous
 62
               7
100
AcDbVertex
100
AcDb2dVertex
 10
-33.252725315305725
 20
838.50981088294191
 30
0.0
  0
VERTEX
  5
1BA
100
AcDbEntity
  8
0
370
              15
390
0
  6
Continuous
 62
               7
100
AcDbVertex
100
AcDb2dVertex
 10
-19.25271531530575
 20
838.50981088294191
 30
0.0
  0
VERTEX
  5
1BB
100
AcDbEntity
  8
0
370
              15
390
0
  6
Continuous
 62
               7
100
AcDbVertex
100
AcDb2dVertex
 10
-19.25271531530575
 20
269.50981088294191
 30
0.0
  0
VERTEX
  5
1BC
100
AcDbEntity
  8
0
370
              15
390
0
  6
Continuous
 62
               7
100
AcDbVertex
100
AcDb2dVertex
 10
-33.252725315305725
 20
269.50981088294191
 30
0.0
  0
SEQEND
  5
1BD
100
AcDbEntity
  8
0
370
              15
390
0
  6
Continuous
 62
               7
  0
POLYLINE
  5
1BF
100
AcDbEntity
  8
0
370
              15
390
0
  6
Continuous
 62
               7
100
AcDb2dPolyline
 66
               1
 10
0.0
 20
0.0
 30
0.0
 70
               1
 75
               5
  0
VERTEX
  5
1C0
100
AcDbEntity
  8
0
370
              15
390
0
  6
Continuous
 62
               7
100
AcDbVertex
100
AcDb2dVertex
 10
-33.252725315305725
 20
268.50981088294191
 30
0.0
  0
VERTEX
  5
1C1
100
AcDbEntity
  8
0
370
              15
390
0
  6
Continuous
 62
               7
100
AcDbVertex
100
AcDb2dVertex
 10
-19.25271531530575
 20
268.50981088294191
 30
0.0
  0
VERTEX
  5
1C2
100
AcDbEntity
  8
0
370
              15
390
0
  6
Continuous
 62
               7
100
AcDbVertex
100
AcDb2dVertex
 10
-19.25271531530575
 20
245.50981088294191
 30
0.0
  0
VERTEX
  5
1C3
100
AcDbEntity
  8
0
370
              15
390
0
  6
Continuous
 62
               7
100
AcDbVertex
100
AcDb2dVertex
 10
-33.252725315305725
 20
245.50981088294191
 30
0.0
  0
SEQEND
  5
1C4
100
AcDbEntity
  8
0
370
              15
390
0
  6
Continuous
 62
               7
  0
POLYLINE
  5
1C6
100
AcDbEntity
  8
0
370
              15
390
0
  6
Continuous
 62
               7
100
AcDb2dPolyline
 66
               1
 10
0.0
 20
0.0
 30
0.0
 70
               1
 75
               5
  0
VERTEX
  5
1C7
100
AcDbEntity
  8
0
370
              15
390
0
  6
Continuous
 62
               7
100
AcDbVertex
100
AcDb2dVertex
 10
-33.252725315305725
 20
244.50981088293634
 30
0.0
  0
VERTEX
  5
1C8
100
AcDbEntity
  8
0
370
              15
390
0
  6
Continuous
 62
               7
100
AcDbVertex
100
AcDb2dVertex
 10
-19.25271531530575
 20
244.50981088293634
 30
0.0
  0
VERTEX
  5
1C9
100
AcDbEntity
  8
0
370
              15
390
0
  6
Continuous
 62
               7
100
AcDbVertex
100
AcDb2dVertex
 10
-19.25271531530575
 20
-324.49018911706366
 30
0.0
  0
VERTEX
  5
1CA
100
AcDbEntity
  8
0
370
              15
390
0
  6
Continuous
 62
               7
100
AcDbVertex
100
AcDb2dVertex
 10
-33.252725315305725
 20
-324.49018911706366
 30
0.0
  0
SEQEND
  5
1CB
100
AcDbEntity
  8
0
370
              15
390
0
  6
Continuous
 62
               7
  0
POLYLINE
  5
1CD
100
AcDbEntity
  8
0
370
              15
390
0
  6
Continuous
 62
               7
100
AcDb2dPolyline
 66
               1
 10
0.0
 20
0.0
 30
0.0
 70
               1
 75
               5
  0
VERTEX
  5
1CE
100
AcDbEntity
  8
0
370
              15
390
0
  6
Continuous
 62
               7
100
AcDbVertex
100
AcDb2dVertex
 10
-33.252725315305725
 20
-325.49018911706366
 30
0.0
  0
VERTEX
  5
1CF
100
AcDbEntity
  8
0
370
              15
390
0
  6
Continuous
 62
               7
100
AcDbVertex
100
AcDb2dVertex
 10
-19.25271531530575
 20
-325.49018911706366
 30
0.0
  0
VERTEX
  5
1D0
100
AcDbEntity
  8
0
370
              15
390
0
  6
Continuous
 62
               7
100
AcDbVertex
100
AcDb2dVertex
 10
-19.25271531530575
 20
-348.49018911706366
 30
0.0
  0
VERTEX
  5
1D1
100
AcDbEntity
  8
0
370
              15
390
0
  6
Continuous
 62
               7
100
AcDbVertex
100
AcDb2dVertex
 10
-33.252725315305725
 20
-348.49018911706366
 30
0.0
  0
SEQEND
  5
1D2
100
AcDbEntity
  8
0
370
              15
390
0
  6
Continuous
 62
               7
  0
POLYLINE
  5
1D4
100
AcDbEntity
  8
0
370
              15
390
0
  6
Continuous
 62
               7
100
AcDb2dPolyline
 66
               1
 10
0.0
 20
0.0
 30
0.0
 70
               1
 75
               5
  0
VERTEX
  5
1D5
100
AcDbEntity
  8
0
370
              15
390
0
  6
Continuous
 62
               7
100
AcDbVertex
100
AcDb2dVertex
 10
-32.241336824722111
 20
269.50956320999774
 30
0.0
  0
VERTEX
  5
1D6
100
AcDbEntity
  8
0
370
              15
390
0
  6
Continuous
 62
               7
100
AcDbVertex
100
AcDb2dVertex
 10
-20.251336824722102
 20
269.50956320999774
 30
0.0
  0
VERTEX
  5
1D7
100
AcDbEntity
  8
0
370
              15
390
0
  6
Continuous
 62
               7
100
AcDbVertex
100
AcDb2dVertex
 10
-20.251336824722102
 20
268.50956320999774
 30
0.0
  0
VERTEX
  5
1D8
100
AcDbEntity
  8
0
370
              15
390
0
  6
Continuous
 62
               7
100
AcDbVertex
100
AcDb2dVertex
 10
-32.241336824722111
 20
268.50956320999774
 30
0.0
  0
SEQEND
  5
1D9
100
AcDbEntity
  8
0
370
              15
390
0
  6
Continuous
 62
               7
  0
POLYLINE
  5
1DB
100
AcDbEntity
  8
0
370
              15
390
0
  6
Continuous
 62
               7
100
AcDb2dPolyline
 66
               1
 10
0.0
 20
0.0
 30
0.0
 70
               1
 75
               5
  0
VERTEX
  5
1DC
100
AcDbEntity
  8
0
370
              15
390
0
  6
Continuous
 62
               7
100
AcDbVertex
100
AcDb2dVertex
 10
-32.241336824722111
 20
245.50956320999774
 30
0.0
  0
VERTEX
  5
1DD
100
AcDbEntity
  8
0
370
              15
390
0
  6
Continuous
 62
               7
100
AcDbVertex
100
AcDb2dVertex
 10
-20.251336824722102
 20
245.50956320999774
 30
0.0
  0
VERTEX
  5
1DE
100
AcDbEntity
  8
0
370
              15
390
0
  6
Continuous
 62
               7
100
AcDbVertex
100
AcDb2dVertex
 10
-20.251336824722102
 20
244.50956320999774
 30
0.0
  0
VERTEX
  5
1DF
100
AcDbEntity
  8
0
370
              15
390
0
  6
Continuous
 62
               7
100
AcDbVertex
100
AcDb2dVertex
 10
-32.241336824722111
 20
244.50956320999774
 30
0.0
  0
SEQEND
  5
1E0
100
AcDbEntity
  8
0
370
              15
390
0
  6
Continuous
 62
               7
  0
POLYLINE
  5
1E2
100
AcDbEntity
  8
0
370
              15
390
0
  6
Continuous
 62
               7
100
AcDb2dPolyline
 66
               1
 10
0.0
 20
0.0
 30
0.0
 70
               1
 75
               5
  0
VERTEX
  5
1E3
100
AcDbEntity
  8
0
370
              15
390
0
  6
Continuous
 62
               7
100
AcDbVertex
100
AcDb2dVertex
 10
-32.241336824722111
 20
-324.49043679000783
 30
0.0
  0
VERTEX
  5
1E4
100
AcDbEntity
  8
0
370
              15
390
0
  6
Continuous
 62
               7
100
AcDbVertex
100
AcDb2dVertex
 10
-20.251336824722102
 20
-324.49043679000783
 30
0.0
  0
VERTEX
  5
1E5
100
AcDbEntity
  8
0
370
              15
390
0
  6
Continuous
 62
               7
100
AcDbVertex
100
AcDb2dVertex
 10
-20.251336824722102
 20
-325.49043679000783
 30
0.0
  0
VERTEX
  5
1E6
100
AcDbEntity
  8
0
370
              15
390
0
  6
Continuous
 62
               7
100
AcDbVertex
100
AcDb2dVertex
 10
-32.241336824722111
 20
-325.49043679000783
 30
0.0
  0
SEQEND
  5
1E7
100
AcDbEntity
  8
0
370
              15
390
0
  6
Continuous
 62
               7
  0
POLYLINE
  5
1E9
100
AcDbEntity
  8
0
370
              15
390
0
  6
Continuous
 62
               7
100
AcDb2dPolyline
 66
               1
 10
0.0
 20
0.0
 30
0.0
 70
               1
 75
               5
  0
VERTEX
  5
1EA
100
AcDbEntity
  8
0
370
              15
390
0
  6
Continuous
 62
               7
100
AcDbVertex
100
AcDb2dVertex
 10
1065.2233226759136
 20
247.3832893589265
 30
0.0
  0
VERTEX
  5
1EB
100
AcDbEntity
  8
0
370
              15
390
0
  6
Continuous
 62
               7
100
AcDbVertex
100
AcDb2dVertex
 10
1079.223332675916
 20
247.3832893589265
 30
0.0
  0
VERTEX
  5
1EC
100
AcDbEntity
  8
0
370
              15
390
0
  6
Continuous
 62
               7
100
AcDbVertex
100
AcDb2dVertex
 10
1079.223332675916
 20
-321.6167106410735
 30
0.0
  0
VERTEX
  5
1ED
100
AcDbEntity
  8
0
370
              15
390
0
  6
Continuous
 62
               7
100
AcDbVertex
100
AcDb2dVertex
 10
1065.2233226759136
 20
-321.6167106410735
 30
0.0
  0
SEQEND
  5
1EE
100
AcDbEntity
  8
0
370
              15
390
0
  6
Continuous
 62
               7
  0
POLYLINE
  5
1F0
100
AcDbEntity
  8
0
370
              15
390
0
  6
Continuous
 62
               7
100
AcDb2dPolyline
 66
               1
 10
0.0
 20
0.0
 30
0.0
 70
               1
 75
               5
  0
VERTEX
  5
1F1
100
AcDbEntity
  8
0
370
              15
390
0
  6
Continuous
 62
               7
100
AcDbVertex
100
AcDb2dVertex
 10
1066.2219441853299
 20
248.3830416859829
 30
0.0
  0
VERTEX
  5
1F2
100
AcDbEntity
  8
0
370
              15
390
0
  6
Continuous
 62
               7
100
AcDbVertex
100
AcDb2dVertex
 10
1078.2119441853322
 20
248.3830416859829
 30
0.0
  0
VERTEX
  5
1F3
100
AcDbEntity
  8
0
370
              15
390
0
  6
Continuous
 62
               7
100
AcDbVertex
100
AcDb2dVertex
 10
1078.2119441853322
 20
247.3830416859829
 30
0.0
  0
VERTEX
  5
1F4
100
AcDbEntity
  8
0
370
              15
390
0
  6
Continuous
 62
               7
100
AcDbVertex
100
AcDb2dVertex
 10
1066.2219441853299
 20
247.3830416859829
 30
0.0
  0
SEQEND
  5
1F5
100
AcDbEntity
  8
0
370
              15
390
0
  6
Continuous
 62
               7
  0
POLYLINE
  5
1F7
100
AcDbEntity
  8
0
370
              15
390
0
  6
Continuous
 62
               7
100
AcDb2dPolyline
 66
               1
 10
0.0
 20
0.0
 30
0.0
 70
               1
 75
               5
  0
VERTEX
  5
1F8
100
AcDbEntity
  8
0
370
              15
390
0
  6
Continuous
 62
               7
100
AcDbVertex
100
AcDb2dVertex
 10
1066.2219441853299
 20
-321.61695831401767
 30
0.0
  0
VERTEX
  5
1F9
100
AcDbEntity
  8
0
370
              15
390
0
  6
Continuous
 62
               7
100
AcDbVertex
100
AcDb2dVertex
 10
1078.2119441853322
 20
-321.61695831401767
 30
0.0
  0
VERTEX
  5
1FA
100
AcDbEntity
  8
0
370
              15
390
0
  6
Continuous
 62
               7
100
AcDbVertex
100
AcDb2dVertex
 10
1078.2119441853322
 20
-322.61695831401767
 30
0.0
  0
VERTEX
  5
1FB
100
AcDbEntity
  8
0
370
              15
390
0
  6
Continuous
 62
               7
100
AcDbVertex
100
AcDb2dVertex
 10
1066.2219441853299
 20
-322.61695831401767
 30
0.0
  0
SEQEND
  5
1FC
100
AcDbEntity
  8
0
370
              15
390
0
  6
Continuous
 62
               7
  0
POLYLINE
  5
1FE
100
AcDbEntity
  8
0
370
              15
390
0
  6
Continuous
 62
               7
100
AcDb2dPolyline
 66
               1
 10
0.0
 20
0.0
 30
0.0
 70
               1
 75
               5
  0
VERTEX
  5
1FF
100
AcDbEntity
  8
0
370
              15
390
0
  6
Continuous
 62
               7
100
AcDbVertex
100
AcDb2dVertex
 10
1065.2233226759136
 20
841.28173079091914
 30
0.0
  0
VERTEX
  5
200
100
AcDbEntity
  8
0
370
              15
390
0
  6
Continuous
 62
               7
100
AcDbVertex
100
AcDb2dVertex
 10
1079.223332675916
 20
841.28173079091914
 30
0.0
  0
VERTEX
  5
201
100
AcDbEntity
  8
0
370
              15
390
0
  6
Continuous
 62
               7
100
AcDbVertex
100
AcDb2dVertex
 10
1079.223332675916
 20
272.28173079091914
 30
0.0
  0
VERTEX
  5
202
100
AcDbEntity
  8
0
370
              15
390
0
  6
Continuous
 62
               7
100
AcDbVertex
100
AcDb2dVertex
 10
1065.2233226759136
 20
272.28173079091914
 30
0.0
  0
SEQEND
  5
203
100
AcDbEntity
  8
0
370
              15
390
0
  6
Continuous
 62
               7
  0
POLYLINE
  5
205
100
AcDbEntity
  8
0
370
              15
390
0
  6
Continuous
 62
               7
100
AcDb2dPolyline
 66
               1
 10
0.0
 20
0.0
 30
0.0
 70
               1
 75
               5
  0
VERTEX
  5
206
100
AcDbEntity
  8
0
370
              15
390
0
  6
Continuous
 62
               7
100
AcDbVertex
100
AcDb2dVertex
 10
1066.2219441853299
 20
842.28148311801226
 30
0.0
  0
VERTEX
  5
207
100
AcDbEntity
  8
0
370
              15
390
0
  6
Continuous
 62
               7
100
AcDbVertex
100
AcDb2dVertex
 10
1078.2119441853322
 20
842.28148311801226
 30
0.0
  0
VERTEX
  5
208
100
AcDbEntity
  8
0
370
              15
390
0
  6
Continuous
 62
               7
100
AcDbVertex
100
AcDb2dVertex
 10
1078.2119441853322
 20
841.28148311801226
 30
0.0
  0
VERTEX
  5
209
100
AcDbEntity
  8
0
370
              15
390
0
  6
Continuous
 62
               7
100
AcDbVertex
100
AcDb2dVertex
 10
1066.2219441853299
 20
841.28148311801226
 30
0.0
  0
SEQEND
  5
20A
100
AcDbEntity
  8
0
370
              15
390
0
  6
Continuous
 62
               7
  0
POLYLINE
  5
20C
100
AcDbEntity
  8
0
370
              15
390
0
  6
Continuous
 62
               7
100
AcDb2dPolyline
 66
               1
 10
0.0
 20
0.0
 30
0.0
 70
               1
 75
               5
  0
VERTEX
  5
20D
100
AcDbEntity
  8
0
370
              15
390
0
  6
Continuous
 62
               7
100
AcDbVertex
100
AcDb2dVertex
 10
1066.2219441853299
 20
272.28148311797497
 30
0.0
  0
VERTEX
  5
20E
100
AcDbEntity
  8
0
370
              15
390
0
  6
Continuous
 62
               7
100
AcDbVertex
100
AcDb2dVertex
 10
1078.2119441853322
 20
272.28148311797497
 30
0.0
  0
VERTEX
  5
20F
100
AcDbEntity
  8
0
370
              15
390
0
  6
Continuous
 62
               7
100
AcDbVertex
100
AcDb2dVertex
 10
1078.2119441853322
 20
271.28148311797497
 30
0.0
  0
VERTEX
  5
210
100
AcDbEntity
  8
0
370
              15
390
0
  6
Continuous
 62
               7
100
AcDbVertex
100
AcDb2dVertex
 10
1066.2219441853299
 20
271.28148311797497
 30
0.0
  0
SEQEND
  5
211
100
AcDbEntity
  8
0
370
              15
390
0
  6
Continuous
 62
               7
  0
POLYLINE
  5
213
100
AcDbEntity
  8
0
370
              15
390
0
  6
Continuous
 62
               7
100
AcDb2dPolyline
 66
               1
 10
0.0
 20
0.0
 30
0.0
 70
               1
 75
               5
  0
VERTEX
  5
214
100
AcDbEntity
  8
0
370
              15
390
0
  6
Continuous
 62
               7
100
AcDbVertex
100
AcDb2dVertex
 10
1030.2546237967035
 20
-322.66675044134854
 30
0.0
  0
VERTEX
  5
215
100
AcDbEntity
  8
0
370
              15
390
0
  6
Continuous
 62
               7
100
AcDbVertex
100
AcDb2dVertex
 10
1079.2546237967131
 20
-322.66675044134854
 30
0.0
  0
VERTEX
  5
216
100
AcDbEntity
  8
0
370
              15
390
0
  6
Continuous
 62
               7
100
AcDbVertex
100
AcDb2dVertex
 10
1079.2546237967131
 20
-345.66675044134854
 30
0.0
  0
VERTEX
  5
217
100
AcDbEntity
  8
0
370
              15
390
0
  6
Continuous
 62
               7
100
AcDbVertex
100
AcDb2dVertex
 10
1030.2546237967035
 20
-345.66675044134854
 30
0.0
  0
SEQEND
  5
218
100
AcDbEntity
  8
0
370
              15
390
0
  6
Continuous
 62
               7
  0
POLYLINE
  5
21A
100
AcDbEntity
  8
0
370
              15
390
0
  6
Continuous
 62
               7
100
AcDb2dPolyline
 66
               1
 10
0.0
 20
0.0
 30
0.0
 70
               1
 75
               5
  0
VERTEX
  5
21B
100
AcDbEntity
  8
0
370
              15
390
0
  6
Continuous
 62
               7
100
AcDbVertex
100
AcDb2dVertex
 10
1072.3250651029934
 20
-322.66675044134854
 30
0.0
  0
VERTEX
  5
21C
100
AcDbEntity
  8
0
370
              15
390
0
  6
Continuous
 62
               7
100
AcDbVertex
100
AcDb2dVertex
 10
1079.2546237967133
 20
-322.66675044134854
 30
0.0
  0
VERTEX
  5
21D
100
AcDbEntity
  8
0
370
              15
390
0
  6
Continuous
 62
               7
100
AcDbVertex
100
AcDb2dVertex
 10
1079.2546237967133
 20
-345.66675044134854
 30
0.0
  0
VERTEX
  5
21E
100
AcDbEntity
  8
0
370
              15
390
0
  6
Continuous
 62
               7
100
AcDbVertex
100
AcDb2dVertex
 10
1072.3250651029934
 20
-345.66675044134854
 30
0.0
  0
SEQEND
  5
21F
100
AcDbEntity
  8
0
370
              15
390
0
  6
Continuous
 62
               7
  0
POLYLINE
  5
221
100
AcDbEntity
  8
0
370
              15
390
0
  6
Continuous
 62
               7
100
AcDb2dPolyline
 66
               1
 10
0.0
 20
0.0
 30
0.0
 70
               1
 75
               5
  0
VERTEX
  5
222
100
AcDbEntity
  8
0
370
              15
390
0
  6
Continuous
 62
               7
100
AcDbVertex
100
AcDb2dVertex
 10
1030.2546237967035
 20
271.36442830509725
 30
0.0
  0
VERTEX
  5
223
100
AcDbEntity
  8
0
370
              15
390
0
  6
Continuous
 62
               7
100
AcDbVertex
100
AcDb2dVertex
 10
1079.2546237967131
 20
271.36442830509725
 30
0.0
  0
VERTEX
  5
224
100
AcDbEntity
  8
0
370
              15
390
0
  6
Continuous
 62
               7
100
AcDbVertex
100
AcDb2dVertex
 10
1079.2546237967131
 20
248.36442830509725
 30
0.0
  0
VERTEX
  5
225
100
AcDbEntity
  8
0
370
              15
390
0
  6
Continuous
 62
               7
100
AcDbVertex
100
AcDb2dVertex
 10
1030.2546237967035
 20
248.36442830509725
 30
0.0
  0
SEQEND
  5
226
100
AcDbEntity
  8
0
370
              15
390
0
  6
Continuous
 62
               7
  0
POLYLINE
  5
228
100
AcDbEntity
  8
0
370
              15
390
0
  6
Continuous
 62
               7
100
AcDb2dPolyline
 66
               1
 10
0.0
 20
0.0
 30
0.0
 70
               1
 75
               5
  0
VERTEX
  5
229
100
AcDbEntity
  8
0
370
              15
390
0
  6
Continuous
 62
               7
100
AcDbVertex
100
AcDb2dVertex
 10
1072.3250651029934
 20
271.36442830509725
 30
0.0
  0
VERTEX
  5
22A
100
AcDbEntity
  8
0
370
              15
390
0
  6
Continuous
 62
               7
100
AcDbVertex
100
AcDb2dVertex
 10
1079.2546237967133
 20
271.36442830509725
 30
0.0
  0
VERTEX
  5
22B
100
AcDbEntity
  8
0
370
              15
390
0
  6
Continuous
 62
               7
100
AcDbVertex
100
AcDb2dVertex
 10
1079.2546237967133
 20
248.36442830509725
 30
0.0
  0
VERTEX
  5
22C
100
AcDbEntity
  8
0
370
              15
390
0
  6
Continuous
 62
               7
100
AcDbVertex
100
AcDb2dVertex
 10
1072.3250651029934
 20
248.36442830509725
 30
0.0
  0
SEQEND
  5
22D
100
AcDbEntity
  8
0
370
              15
390
0
  6
Continuous
 62
               7
  0
POLYLINE
  5
22F
100
AcDbEntity
  8
0
370
              15
390
0
  6
Continuous
 62
               7
100
AcDb2dPolyline
 66
               1
 10
0.0
 20
0.0
 30
0.0
 70
               1
 75
               5
  0
VERTEX
  5
230
100
AcDbEntity
  8
0
370
              15
390
0
  6
Continuous
 62
               7
100
AcDbVertex
100
AcDb2dVertex
 10
1030.2546237967035
 20
865.30298532926929
 30
0.0
  0
VERTEX
  5
231
100
AcDbEntity
  8
0
370
              15
390
0
  6
Continuous
 62
               7
100
AcDbVertex
100
AcDb2dVertex
 10
1079.2546237967131
 20
865.30298532926929
 30
0.0
  0
VERTEX
  5
232
100
AcDbEntity
  8
0
370
              15
390
0
  6
Continuous
 62
               7
100
AcDbVertex
100
AcDb2dVertex
 10
1079.2546237967131
 20
842.30298532926929
 30
0.0
  0
VERTEX
  5
233
100
AcDbEntity
  8
0
370
              15
390
0
  6
Continuous
 62
               7
100
AcDbVertex
100
AcDb2dVertex
 10
1030.2546237967035
 20
842.30298532926929
 30
0.0
  0
SEQEND
  5
234
100
AcDbEntity
  8
0
370
              15
390
0
  6
Continuous
 62
               7
  0
POLYLINE
  5
236
100
AcDbEntity
  8
0
370
              15
390
0
  6
Continuous
 62
               7
100
AcDb2dPolyline
 66
               1
 10
0.0
 20
0.0
 30
0.0
 70
               1
 75
               5
  0
VERTEX
  5
237
100
AcDbEntity
  8
0
370
              15
390
0
  6
Continuous
 62
               7
100
AcDbVertex
100
AcDb2dVertex
 10
1072.3250651029934
 20
865.30298532926929
 30
0.0
  0
VERTEX
  5
238
100
AcDbEntity
  8
0
370
              15
390
0
  6
Continuous
 62
               7
100
AcDbVertex
100
AcDb2dVertex
 10
1079.2546237967133
 20
865.30298532926929
 30
0.0
  0
VERTEX
  5
239
100
AcDbEntity
  8
0
370
              15
390
0
  6
Continuous
 62
               7
100
AcDbVertex
100
AcDb2dVertex
 10
1079.2546237967133
 20
842.30298532926929
 30
0.0
  0
VERTEX
  5
23A
100
AcDbEntity
  8
0
370
              15
390
0
  6
Continuous
 62
               7
100
AcDbVertex
100
AcDb2dVertex
 10
1072.3250651029934
 20
842.30298532926929
 30
0.0
  0
SEQEND
  5
23B
100
AcDbEntity
  8
0
370
              15
390
0
  6
Continuous
 62
               7
  0
POLYLINE
  5
23D
100
AcDbEntity
  8
0
370
              15
390
0
  6
Continuous
 62
               7
100
AcDb2dPolyline
 66
               1
 10
0.0
 20
0.0
 30
0.0
 70
               1
 75
               5
  0
VERTEX
  5
23E
100
AcDbEntity
  8
0
370
              15
390
0
  6
Continuous
 62
               7
100
AcDbVertex
100
AcDb2dVertex
 10
-726.9946595919796
 20
1711.4802598917672
 30
0.0
  0
VERTEX
  5
23F
100
AcDbEntity
  8
0
370
              15
390
0
  6
Continuous
 62
               7
100
AcDbVertex
100
AcDb2dVertex
 10
29.005340408020402
 20
1711.4802598917672
 30
0.0
  0
VERTEX
  5
240
100
AcDbEntity
  8
0
370
              15
390
0
  6
Continuous
 62
               7
100
AcDbVertex
100
AcDb2dVertex
 10
29.005340408020402
 20
1692.480259891769
 30
0.0
  0
VERTEX
  5
241
100
AcDbEntity
  8
0
370
              15
390
0
  6
Continuous
 62
               7
100
AcDbVertex
100
AcDb2dVertex
 10
-726.9946595919796
 20
1692.480259891769
 30
0.0
  0
SEQEND
  5
242
100
AcDbEntity
  8
0
370
              15
390
0
  6
Continuous
 62
               7
  0
LINE
  5
244
100
AcDbEntity
  8
0
370
              15
390
0
  6
Continuous
 62
               7
100
AcDbLine
 10
-11.597006075972558
 20
1650.3398972016703
 30
0.0
 11
-11.597006075972558
 21
1692.3398972016703
 31
0.0
  0
LINE
  5
245
100
AcDbEntity
  8
0
370
              15
390
0
  6
Continuous
 62
               7
100
AcDbLine
 10
-25.597006075972558
 20
1692.3398972016703
 30
0.0
 11
-25.597006075972558
 21
1650.3398972016703
 31
0.0
  0
LINE
  5
246
100
AcDbEntity
  8
0
370
              15
390
0
  6
Continuous
 62
               7
100
AcDbLine
 10
-20.273779489548815
 20
1643.4574551822407
 30
0.0
 11
-20.106779686487698
 21
1643.4171211575288
 31
0.0
  0
LINE
  5
247
100
AcDbEntity
  8
0
370
              15
390
0
  6
Continuous
 62
               7
100
AcDbLine
 10
-20.439739148874196
 20
1643.5018754394287
 30
0.0
 11
-20.273779489548815
 21
1643.4574551822407
 31
0.0
  0
LINE
  5
248
100
AcDbEntity
  8
0
370
              15
390
0
  6
Continuous
 62
               7
100
AcDbLine
 10
-20.604558696570166
 20
1643.5503551719905
 30
0.0
 11
-20.439739148874196
 21
1643.5018754394287
 31
0.0
  0
LINE
  5
249
100
AcDbEntity
  8
0
370
              15
390
0
  6
Continuous
 62
               7
100
AcDbLine
 10
-20.768138851504318
 20
1643.6028651775487
 30
0.0
 11
-20.604558696570166
 21
1643.5503551719905
 31
0.0
  0
LINE
  5
24A
100
AcDbEntity
  8
0
370
              15
390
0
  6
Continuous
 62
               7
100
AcDbLine
 10
-20.930381079107974
 20
1643.6593738260385
 30
0.0
 11
-20.768138851504318
 21
1643.6028651775487
 31
0.0
  0
LINE
  5
24B
100
AcDbEntity
  8
0
370
              15
390
0
  6
Continuous
 62
               7
100
AcDbLine
 10
-21.091187650729808
 20
1643.7198470787639
 30
0.0
 11
-20.930381079107974
 21
1643.6593738260385
 31
0.0
  0
LINE
  5
24C
100
AcDbEntity
  8
0
370
              15
390
0
  6
Continuous
 62
               7
100
AcDbLine
 10
-21.250461702504253
 20
1643.7842485088986
 30
0.0
 11
-21.091187650729808
 21
1643.7198470787639
 31
0.0
  0
LINE
  5
24D
100
AcDbEntity
  8
0
370
              15
390
0
  6
Continuous
 62
               7
100
AcDbLine
 10
-21.408107293697867
 20
1643.8525393234286
 30
0.0
 11
-21.250461702504253
 21
1643.7842485088986
 31
0.0
  0
LINE
  5
24E
100
AcDbEntity
  8
0
370
              15
390
0
  6
Continuous
 62
               7
100
AcDbLine
 10
-21.564029464501346
 20
1643.9246783865212
 30
0.0
 11
-21.408107293697867
 21
1643.8525393234286
 31
0.0
  0
LINE
  5
24F
100
AcDbEntity
  8
0
370
              15
390
0
  6
Continuous
 62
               7
100
AcDbLine
 10
-21.718134293229468
 20
1644.0006222443023
 30
0.0
 11
-21.564029464501346
 21
1643.9246783865212
 31
0.0
  0
LINE
  5
250
100
AcDbEntity
  8
0
370
              15
390
0
  6
Continuous
 62
               7
100
AcDbLine
 10
-21.870328952895761
 20
1644.0803251510315
 30
0.0
 11
-21.718134293229468
 21
1644.0006222443023
 31
0.0
  0
LINE
  5
251
100
AcDbEntity
  8
0
370
              15
390
0
  6
Continuous
 62
               7
100
AcDbLine
 10
-22.020521767127775
 20
1644.1637390966582
 30
0.0
 11
-21.870328952895761
 21
1644.0803251510315
 31
0.0
  0
LINE
  5
252
100
AcDbEntity
  8
0
370
              15
390
0
  6
Continuous
 62
               7
100
AcDbLine
 10
-22.168622265390695
 20
1644.2508138357407
 30
0.0
 11
-22.020521767127775
 21
1644.1637390966582
 31
0.0
  0
LINE
  5
253
100
AcDbEntity
  8
0
370
              15
390
0
  6
Continuous
 62
               7
100
AcDbLine
 10
-22.31454123748199
 20
1644.341496917712
 30
0.0
 11
-22.168622265390695
 21
1644.2508138357407
 31
0.0
  0
LINE
  5
254
100
AcDbEntity
  8
0
370
              15
390
0
  6
Continuous
 62
               7
100
AcDbLine
 10
-22.458190787269359
 20
1644.4357337184742
 30
0.0
 11
-22.31454123748199
 21
1644.341496917712
 31
0.0
  0
LINE
  5
255
100
AcDbEntity
  8
0
370
              15
390
0
  6
Continuous
 62
               7
100
AcDbLine
 10
-22.599484385635151
 20
1644.5334674733024
 30
0.0
 11
-22.458190787269359
 21
1644.4357337184742
 31
0.0
  0
LINE
  5
256
100
AcDbEntity
  8
0
370
              15
390
0
  6
Continuous
 62
               7
100
AcDbLine
 10
-22.738336922599046
 20
1644.6346393110373
 30
0.0
 11
-22.599484385635151
 21
1644.5334674733024
 31
0.0
  0
LINE
  5
257
100
AcDbEntity
  8
0
370
              15
390
0
  6
Continuous
 62
               7
100
AcDbLine
 10
-22.874664758584913
 20
1644.7391882895467
 30
0.0
 11
-22.738336922599046
 21
1644.6346393110373
 31
0.0
  0
LINE
  5
258
100
AcDbEntity
  8
0
370
              15
390
0
  6
Continuous
 62
               7
100
AcDbLine
 10
-23.008385774802264
 20
1644.8470514324356
 30
0.0
 11
-22.874664758584913
 21
1644.7391882895467
 31
0.0
  0
LINE
  5
259
100
AcDbEntity
  8
0
370
              15
390
0
  6
Continuous
 62
               7
100
AcDbLine
 10
-23.139419422710489
 20
1644.9581637669796
 30
0.0
 11
-23.008385774802264
 21
1644.8470514324356
 31
0.0
  0
LINE
  5
25A
100
AcDbEntity
  8
0
370
              15
390
0
  6
Continuous
 62
               7
100
AcDbLine
 10
-23.267686772539946
 20
1645.0724583632636
 30
0.0
 11
-23.139419422710489
 21
1644.9581637669796
 31
0.0
  0
LINE
  5
25B
100
AcDbEntity
  8
0
370
              15
390
0
  6
Continuous
 62
               7
100
AcDbLine
 10
-23.393110560835567
 20
1645.189866374496
 30
0.0
 11
-23.267686772539946
 21
1645.0724583632636
 31
0.0
  0
LINE
  5
25C
100
AcDbEntity
  8
0
370
              15
390
0
  6
Continuous
 62
               7
100
AcDbLine
 10
-23.515615236996837
 20
1645.3103170784814
 30
0.0
 11
-23.393110560835567
 21
1645.189866374496
 31
0.0
  0
LINE
  5
25D
100
AcDbEntity
  8
0
370
              15
390
0
  6
Continuous
 62
               7
100
AcDbLine
 10
-23.635127008788004
 20
1645.4337379202195
 30
0.0
 11
-23.515615236996837
 21
1645.3103170784814
 31
0.0
  0
LINE
  5
25E
100
AcDbEntity
  8
0
370
              15
390
0
  6
Continuous
 62
               7
100
AcDbLine
 10
-23.751573886786446
 20
1645.5600545556103
 30
0.0
 11
-23.635127008788004
 21
1645.4337379202195
 31
0.0
  0
LINE
  5
25F
100
AcDbEntity
  8
0
370
              15
390
0
  6
Continuous
 62
               7
100
AcDbLine
 10
-23.864885727746696
 20
1645.6891908962359
 30
0.0
 11
-23.751573886786446
 21
1645.5600545556103
 31
0.0
  0
LINE
  5
260
100
AcDbEntity
  8
0
370
              15
390
0
  6
Continuous
 62
               7
100
AcDbLine
 10
-23.974994276853067
 20
1645.8210691551933
 30
0.0
 11
-23.864885727746696
 21
1645.6891908962359
 31
0.0
  0
LINE
  5
261
100
AcDbEntity
  8
0
370
              15
390
0
  6
Continuous
 62
               7
100
AcDbLine
 10
-24.081833208832904
 20
1645.9556098939509
 30
0.0
 11
-23.974994276853067
 21
1645.8210691551933
 31
0.0
  0
LINE
  5
262
100
AcDbEntity
  8
0
370
              15
390
0
  6
Continuous
 62
               7
100
AcDbLine
 10
-24.185338167908412
 20
1646.0927320701981
 30
0.0
 11
-24.081833208832904
 21
1645.9556098939509
 31
0.0
  0
LINE
  5
263
100
AcDbEntity
  8
0
370
              15
390
0
  6
Continuous
 62
               7
100
AcDbLine
 10
-24.285446806562504
 20
1646.2323530866634
 30
0.0
 11
-24.185338167908412
 21
1646.0927320701981
 31
0.0
  0
LINE
  5
264
100
AcDbEntity
  8
0
370
              15
390
0
  6
Continuous
 62
               7
100
AcDbLine
 10
-24.382098823094566
 20
1646.3743888408671
 30
0.0
 11
-24.285446806562504
 21
1646.2323530866634
 31
0.0
  0
LINE
  5
265
100
AcDbEntity
  8
0
370
              15
390
0
  6
Continuous
 62
               7
100
AcDbLine
 10
-24.475235997943855
 20
1646.5187537757824
 30
0.0
 11
-24.382098823094566
 21
1646.3743888408671
 31
0.0
  0
LINE
  5
266
100
AcDbEntity
  8
0
370
              15
390
0
  6
Continuous
 62
               7
100
AcDbLine
 10
-24.564802228759163
 20
1646.6653609313701
 30
0.0
 11
-24.475235997943855
 21
1646.5187537757824
 31
0.0
  0
LINE
  5
267
100
AcDbEntity
  8
0
370
              15
390
0
  6
Continuous
 62
               7
100
AcDbLine
 10
-24.650743564191998
 20
1646.8141219969621
 30
0.0
 11
-24.564802228759163
 21
1646.6653609313701
 31
0.0
  0
LINE
  5
268
100
AcDbEntity
  8
0
370
              15
390
0
  6
Continuous
 62
               7
100
AcDbLine
 10
-24.733008236395108
 20
1646.9649473644547
 30
0.0
 11
-24.650743564191998
 21
1646.8141219969621
 31
0.0
  0
LINE
  5
269
100
AcDbEntity
  8
0
370
              15
390
0
  6
Continuous
 62
               7
100
AcDbLine
 10
-24.811546692206321
 20
1647.1177461822863
 30
0.0
 11
-24.733008236395108
 21
1646.9649473644547
 31
0.0
  0
LINE
  5
26A
100
AcDbEntity
  8
0
370
              15
390
0
  6
Continuous
 62
               7
100
AcDbLine
 10
-24.8863116229968
 20
1647.2724264101628
 30
0.0
 11
-24.811546692206321
 21
1647.1177461822863
 31
0.0
  0
LINE
  5
26B
100
AcDbEntity
  8
0
370
              15
390
0
  6
Continuous
 62
               7
100
AcDbLine
 10
-24.957257993167332
 20
1647.4288948744986
 30
0.0
 11
-24.8863116229968
 21
1647.2724264101628
 31
0.0
  0
LINE
  5
26C
100
AcDbEntity
  8
0
370
              15
390
0
  6
Continuous
 62
               7
100
AcDbLine
 10
-25.024343067278096
 20
1647.5870573245415
 30
0.0
 11
-24.957257993167332
 21
1647.4288948744986
 31
0.0
  0
LINE
  5
26D
100
AcDbEntity
  8
0
370
              15
390
0
  6
Continuous
 62
               7
100
AcDbLine
 10
-25.087526435788277
 20
1647.7468184891457
 30
0.0
 11
-25.024343067278096
 21
1647.5870573245415
 31
0.0
  0
LINE
  5
26E
100
AcDbEntity
  8
0
370
              15
390
0
  6
Continuous
 62
               7
100
AcDbLine
 10
-25.146770039399598
 20
1647.9080821341595
 30
0.0
 11
-25.087526435788277
 21
1647.7468184891457
 31
0.0
  0
LINE
  5
26F
100
AcDbEntity
  8
0
370
              15
390
0
  6
Continuous
 62
               7
100
AcDbLine
 10
-25.202038191980137
 20
1648.0707511203932
 30
0.0
 11
-25.146770039399598
 21
1647.9080821341595
 31
0.0
  0
LINE
  5
270
100
AcDbEntity
  8
0
370
              15
390
0
  6
Continuous
 62
               7
100
AcDbLine
 10
-25.253297602062048
 20
1648.234727462132
 30
0.0
 11
-25.202038191980137
 21
1648.0707511203932
 31
0.0
  0
LINE
  5
271
100
AcDbEntity
  8
0
370
              15
390
0
  6
Continuous
 62
               7
100
AcDbLine
 10
-25.300517392892743
 20
1648.399912386159
 30
0.0
 11
-25.253297602062048
 21
1648.234727462132
 31
0.0
  0
LINE
  5
272
100
AcDbEntity
  8
0
370
              15
390
0
  6
Continuous
 62
               7
100
AcDbLine
 10
-25.343669121036328
 20
1648.5662063912532
 30
0.0
 11
-25.300517392892743
 21
1648.399912386159
 31
0.0
  0
LINE
  5
273
100
AcDbEntity
  8
0
370
              15
390
0
  6
Continuous
 62
               7
100
AcDbLine
 10
-25.382726793505299
 20
1648.7335093081235
 30
0.0
 11
-25.343669121036328
 21
1648.5662063912532
 31
0.0
  0
LINE
  5
274
100
AcDbEntity
  8
0
370
              15
390
0
  6
Continuous
 62
               7
100
AcDbLine
 10
-25.417666883417951
 20
1648.9017203597487
 30
0.0
 11
-25.382726793505299
 21
1648.7335093081235
 31
0.0
  0
LINE
  5
275
100
AcDbEntity
  8
0
370
              15
390
0
  6
Continuous
 62
               7
100
AcDbLine
 10
-25.448468344170806
 20
1649.0707382220812
 30
0.0
 11
-25.417666883417951
 21
1648.9017203597487
 31
0.0
  0
LINE
  5
276
100
AcDbEntity
  8
0
370
              15
390
0
  6
Continuous
 62
               7
100
AcDbLine
 10
-25.475112622115375
 20
1649.2404610850808
 30
0.0
 11
-25.448468344170806
 21
1649.0707382220812
 31
0.0
  0
LINE
  5
277
100
AcDbEntity
  8
0
370
              15
390
0
  6
Continuous
 62
               7
100
AcDbLine
 10
-25.497583667735398
 20
1649.4107867140413
 30
0.0
 11
-25.475112622115375
 21
1649.2404610850808
 31
0.0
  0
LINE
  5
278
100
AcDbEntity
  8
0
370
              15
390
0
  6
Continuous
 62
               7
100
AcDbLine
 10
-25.515867945312948
 20
1649.5816125111724
 30
0.0
 11
-25.497583667735398
 21
1649.4107867140413
 31
0.0
  0
LINE
  5
279
100
AcDbEntity
  8
0
370
              15
390
0
  6
Continuous
 62
               7
100
AcDbLine
 10
-25.529954441082737
 20
1649.7528355774016
 30
0.0
 11
-25.515867945312948
 21
1649.5816125111724
 31
0.0
  0
LINE
  5
27A
100
AcDbEntity
  8
0
370
              15
390
0
  6
Continuous
 62
               7
100
AcDbLine
 10
-25.539834669867105
 20
1649.9243527743561
 30
0.0
 11
-25.529954441082737
 21
1649.7528355774016
 31
0.0
  0
LINE
  5
27B
100
AcDbEntity
  8
0
370
              15
390
0
  6
Continuous
 62
               7
100
AcDbLine
 10
-25.545502680184654
 20
1650.0960607864902
 30
0.0
 11
-25.539834669867105
 21
1649.9243527743561
 31
0.0
  0
LINE
  5
27C
100
AcDbEntity
  8
0
370
              15
390
0
  6
Continuous
 62
               7
100
AcDbLine
 10
-25.546955057838659
 20
1650.2678561833177
 30
0.0
 11
-25.545502680184654
 21
1650.0960607864902
 31
0.0
  0
LINE
  5
27D
100
AcDbEntity
  8
0
370
              15
390
0
  6
Continuous
 62
               7
100
AcDbLine
 10
-11.54982122397405
 20
1650.0426259253481
 30
0.0
 11
-11.547057094106322
 21
1650.2144052237461
 31
0.0
  0
LINE
  5
27E
100
AcDbEntity
  8
0
370
              15
390
0
  6
Continuous
 62
               7
100
AcDbLine
 10
-11.556800196354743
 20
1649.8709661988062
 30
0.0
 11
-11.54982122397405
 21
1650.0426259253481
 31
0.0
  0
LINE
  5
27F
100
AcDbEntity
  8
0
370
              15
390
0
  6
Continuous
 62
               7
100
AcDbLine
 10
-11.567989807377216
 20
1649.6995294455205
 30
0.0
 11
-11.556800196354743
 21
1649.8709661988062
 31
0.0
  0
LINE
  5
280
100
AcDbEntity
  8
0
370
              15
390
0
  6
Continuous
 62
               7
100
AcDbLine
 10
-11.583383316837171
 20
1649.5284189325807
 30
0.0
 11
-11.567989807377216
 21
1649.6995294455205
 31
0.0
  0
LINE
  5
281
100
AcDbEntity
  8
0
370
              15
390
0
  6
Continuous
 62
               7
100
AcDbLine
 10
-11.602971452260817
 20
1649.3577377305619
 30
0.0
 11
-11.583383316837171
 21
1649.5284189325807
 31
0.0
  0
LINE
  5
282
100
AcDbEntity
  8
0
370
              15
390
0
  6
Continuous
 62
               7
100
AcDbLine
 10
-11.62674241448758
 20
1649.1875886514376
 30
0.0
 11
-11.602971452260817
 21
1649.3577377305619
 31
0.0
  0
LINE
  5
283
100
AcDbEntity
  8
0
370
              15
390
0
  6
Continuous
 62
               7
100
AcDbLine
 10
-11.654681884778711
 20
1649.0180741866513
 30
0.0
 11
-11.62674241448758
 21
1649.1875886514376
 31
0.0
  0
LINE
  5
284
100
AcDbEntity
  8
0
370
              15
390
0
  6
Continuous
 62
               7
100
AcDbLine
 10
-11.686773033442023
 20
1648.8492964453776
 30
0.0
 11
-11.654681884778711
 21
1649.0180741866513
 31
0.0
  0
LINE
  5
285
100
AcDbEntity
  8
0
370
              15
390
0
  6
Continuous
 62
               7
100
AcDbLine
 10
-11.72299652996935
 20
1648.6813570930169
 30
0.0
 11
-11.686773033442023
 21
1648.8492964453776
 31
0.0
  0
LINE
  5
286
100
AcDbEntity
  8
0
370
              15
390
0
  6
Continuous
 62
               7
100
AcDbLine
 10
-11.763330554681261
 20
1648.5143572899556
 30
0.0
 11
-11.72299652996935
 21
1648.6813570930169
 31
0.0
  0
LINE
  5
287
100
AcDbEntity
  8
0
370
              15
390
0
  6
Continuous
 62
               7
100
AcDbLine
 10
-11.807750811869028
 20
1648.3483976306302
 30
0.0
 11
-11.763330554681261
 21
1648.5143572899556
 31
0.0
  0
LINE
  5
288
100
AcDbEntity
  8
0
370
              15
390
0
  6
Continuous
 62
               7
100
AcDbLine
 10
-11.856230544431128
 20
1648.1835780829342
 30
0.0
 11
-11.807750811869028
 21
1648.3483976306302
 31
0.0
  0
LINE
  5
289
100
AcDbEntity
  8
0
370
              15
390
0
  6
Continuous
 62
               7
100
AcDbLine
 10
-11.908740549989034
 20
1648.0199979280001
 30
0.0
 11
-11.856230544431128
 21
1648.1835780829342
 31
0.0
  0
LINE
  5
28A
100
AcDbEntity
  8
0
370
              15
390
0
  6
Continuous
 62
               7
100
AcDbLine
 10
-11.965249198479341
 20
1647.8577557003964
 30
0.0
 11
-11.908740549989034
 21
1648.0199979280001
 31
0.0
  0
LINE
  5
28B
100
AcDbEntity
  8
0
370
              15
390
0
  6
Continuous
 62
               7
100
AcDbLine
 10
-12.025722451204729
 20
1647.6969491287746
 30
0.0
 11
-11.965249198479341
 21
1647.8577557003964
 31
0.0
  0
LINE
  5
28C
100
AcDbEntity
  8
0
370
              15
390
0
  6
Continuous
 62
               7
100
AcDbLine
 10
-12.090123881338968
 20
1647.5376750770001
 30
0.0
 11
-12.025722451204729
 21
1647.6969491287746
 31
0.0
  0
LINE
  5
28D
100
AcDbEntity
  8
0
370
              15
390
0
  6
Continuous
 62
               7
100
AcDbLine
 10
-12.158414695869396
 20
1647.3800294858065
 30
0.0
 11
-12.090123881338968
 21
1647.5376750770001
 31
0.0
  0
LINE
  5
28E
100
AcDbEntity
  8
0
370
              15
390
0
  6
Continuous
 62
               7
100
AcDbLine
 10
-12.230553758961833
 20
1647.224107315003
 30
0.0
 11
-12.158414695869396
 21
1647.3800294858065
 31
0.0
  0
LINE
  5
28F
100
AcDbEntity
  8
0
370
              15
390
0
  6
Continuous
 62
               7
100
AcDbLine
 10
-12.306497616742945
 20
1647.0700024862749
 30
0.0
 11
-12.230553758961833
 21
1647.224107315003
 31
0.0
  0
LINE
  5
290
100
AcDbEntity
  8
0
370
              15
390
0
  6
Continuous
 62
               7
100
AcDbLine
 10
-12.386200523472326
 20
1646.9178078266086
 30
0.0
 11
-12.306497616742945
 21
1647.0700024862749
 31
0.0
  0
LINE
  5
291
100
AcDbEntity
  8
0
370
              15
390
0
  6
Continuous
 62
               7
100
AcDbLine
 10
-12.469614469098815
 20
1646.7676150123766
 30
0.0
 11
-12.386200523472326
 21
1646.9178078266086
 31
0.0
  0
LINE
  5
292
100
AcDbEntity
  8
0
370
              15
390
0
  6
Continuous
 62
               7
100
AcDbLine
 10
-12.556689208181297
 20
1646.6195145141137
 30
0.0
 11
-12.469614469098815
 21
1646.7676150123766
 31
0.0
  0
LINE
  5
293
100
AcDbEntity
  8
0
370
              15
390
0
  6
Continuous
 62
               7
100
AcDbLine
 10
-12.647372290152362
 20
1646.4735955420224
 30
0.0
 11
-12.556689208181297
 21
1646.6195145141137
 31
0.0
  0
LINE
  5
294
100
AcDbEntity
  8
0
370
              15
390
0
  6
Continuous
 62
               7
100
AcDbLine
 10
-12.741609090914608
 20
1646.329945992235
 30
0.0
 11
-12.647372290152362
 21
1646.4735955420224
 31
0.0
  0
LINE
  5
295
100
AcDbEntity
  8
0
370
              15
390
0
  6
Continuous
 62
               7
100
AcDbLine
 10
-12.839342845742976
 20
1646.1886523938692
 30
0.0
 11
-12.741609090914608
 21
1646.329945992235
 31
0.0
  0
LINE
  5
296
100
AcDbEntity
  8
0
370
              15
390
0
  6
Continuous
 62
               7
100
AcDbLine
 10
-12.940514683477886
 20
1646.0497998569053
 30
0.0
 11
-12.839342845742976
 21
1646.1886523938692
 31
0.0
  0
LINE
  5
297
100
AcDbEntity
  8
0
370
              15
390
0
  6
Continuous
 62
               7
100
AcDbLine
 10
-13.04506366198757
 20
1645.9134720209195
 30
0.0
 11
-12.940514683477886
 21
1646.0497998569053
 31
0.0
  0
LINE
  5
298
100
AcDbEntity
  8
0
370
              15
390
0
  6
Continuous
 62
               7
100
AcDbLine
 10
-13.152926804876188
 20
1645.7797510047023
 30
0.0
 11
-13.04506366198757
 21
1645.9134720209195
 31
0.0
  0
LINE
  5
299
100
AcDbEntity
  8
0
370
              15
390
0
  6
Continuous
 62
               7
100
AcDbLine
 10
-13.26403913942022
 20
1645.6487173567939
 30
0.0
 11
-13.152926804876188
 21
1645.7797510047023
 31
0.0
  0
LINE
  5
29A
100
AcDbEntity
  8
0
370
              15
390
0
  6
Continuous
 62
               7
100
AcDbLine
 10
-13.378333735704018
 20
1645.5204500069644
 30
0.0
 11
-13.26403913942022
 21
1645.6487173567939
 31
0.0
  0
LINE
  5
29B
100
AcDbEntity
  8
0
370
              15
390
0
  6
Continuous
 62
               7
100
AcDbLine
 10
-13.495741746936801
 20
1645.3950262186688
 30
0.0
 11
-13.378333735704018
 21
1645.5204500069644
 31
0.0
  0
LINE
  5
29C
100
AcDbEntity
  8
0
370
              15
390
0
  6
Continuous
 62
               7
100
AcDbLine
 10
-13.616192450921972
 20
1645.2725215425075
 30
0.0
 11
-13.495741746936801
 21
1645.3950262186688
 31
0.0
  0
LINE
  5
29D
100
AcDbEntity
  8
0
370
              15
390
0
  6
Continuous
 62
               7
100
AcDbLine
 10
-13.739613292660124
 20
1645.1530097707164
 30
0.0
 11
-13.616192450921972
 21
1645.2725215425075
 31
0.0
  0
LINE
  5
29E
100
AcDbEntity
  8
0
370
              15
390
0
  6
Continuous
 62
               7
100
AcDbLine
 10
-13.865929928050946
 20
1645.0365628927182
 30
0.0
 11
-13.739613292660124
 21
1645.1530097707164
 31
0.0
  0
LINE
  5
29F
100
AcDbEntity
  8
0
370
              15
390
0
  6
Continuous
 62
               7
100
AcDbLine
 10
-13.99506626867651
 20
1644.9232510517577
 30
0.0
 11
-13.865929928050946
 21
1645.0365628927182
 31
0.0
  0
LINE
  5
2A0
100
AcDbEntity
  8
0
370
              15
390
0
  6
Continuous
 62
               7
100
AcDbLine
 10
-14.126944527633896
 20
1644.8131425026513
 30
0.0
 11
-13.99506626867651
 21
1644.9232510517577
 31
0.0
  0
LINE
  5
2A1
100
AcDbEntity
  8
0
370
              15
390
0
  6
Continuous
 62
               7
100
AcDbLine
 10
-14.261485266391446
 20
1644.7063035706715
 30
0.0
 11
-14.126944527633896
 21
1644.8131425026513
 31
0.0
  0
LINE
  5
2A2
100
AcDbEntity
  8
0
370
              15
390
0
  6
Continuous
 62
               7
100
AcDbLine
 10
-14.398607442638649
 20
1644.602798611596
 30
0.0
 11
-14.261485266391446
 21
1644.7063035706715
 31
0.0
  0
LINE
  5
2A3
100
AcDbEntity
  8
0
370
              15
390
0
  6
Continuous
 62
               7
100
AcDbLine
 10
-14.538228459103948
 20
1644.5026899729419
 30
0.0
 11
-14.398607442638649
 21
1644.602798611596
 31
0.0
  0
LINE
  5
2A4
100
AcDbEntity
  8
0
370
              15
390
0
  6
Continuous
 62
               7
100
AcDbLine
 10
-14.680264213307964
 20
1644.4060379564098
 30
0.0
 11
-14.538228459103948
 21
1644.5026899729419
 31
0.0
  0
LINE
  5
2A5
100
AcDbEntity
  8
0
370
              15
390
0
  6
Continuous
 62
               7
100
AcDbLine
 10
-14.824629148223039
 20
1644.3129007815605
 30
0.0
 11
-14.680264213307964
 21
1644.4060379564098
 31
0.0
  0
LINE
  5
2A6
100
AcDbEntity
  8
0
370
              15
390
0
  6
Continuous
 62
               7
100
AcDbLine
 10
-14.971236303810656
 20
1644.2233345507452
 30
0.0
 11
-14.824629148223039
 21
1644.3129007815605
 31
0.0
  0
LINE
  5
2A7
100
AcDbEntity
  8
0
370
              15
390
0
  6
Continuous
 62
               7
100
AcDbLine
 10
-15.119997369402654
 20
1644.1373932153124
 30
0.0
 11
-14.971236303810656
 21
1644.2233345507452
 31
0.0
  0
LINE
  5
2A8
100
AcDbEntity
  8
0
370
              15
390
0
  6
Continuous
 62
               7
100
AcDbLine
 10
-15.270822736895298
 20
1644.0551285431093
 30
0.0
 11
-15.119997369402654
 21
1644.1373932153124
 31
0.0
  0
LINE
  5
2A9
100
AcDbEntity
  8
0
370
              15
390
0
  6
Continuous
 62
               7
100
AcDbLine
 10
-15.423621554727106
 20
1643.9765900872981
 30
0.0
 11
-15.270822736895298
 21
1644.0551285431093
 31
0.0
  0
LINE
  5
2AA
100
AcDbEntity
  8
0
370
              15
390
0
  6
Continuous
 62
               7
100
AcDbLine
 10
-15.578301782603376
 20
1643.9018251565076
 30
0.0
 11
-15.423621554727106
 21
1643.9765900872981
 31
0.0
  0
LINE
  5
2AB
100
AcDbEntity
  8
0
370
              15
390
0
  6
Continuous
 62
               7
100
AcDbLine
 10
-15.734770246939206
 20
1643.8308787863371
 30
0.0
 11
-15.578301782603376
 21
1643.9018251565076
 31
0.0
  0
LINE
  5
2AC
100
AcDbEntity
  8
0
370
              15
390
0
  6
Continuous
 62
               7
100
AcDbLine
 10
-15.892932696981916
 20
1643.7637937122263
 30
0.0
 11
-15.734770246939206
 21
1643.8308787863371
 31
0.0
  0
LINE
  5
2AD
100
AcDbEntity
  8
0
370
              15
390
0
  6
Continuous
 62
               7
100
AcDbLine
 10
-16.052693861586249
 20
1643.7006103437161
 30
0.0
 11
-15.892932696981916
 21
1643.7637937122263
 31
0.0
  0
LINE
  5
2AE
100
AcDbEntity
  8
0
370
              15
390
0
  6
Continuous
 62
               7
100
AcDbLine
 10
-16.213957506600082
 20
1643.641366740105
 30
0.0
 11
-16.052693861586249
 21
1643.7006103437161
 31
0.0
  0
LINE
  5
2AF
100
AcDbEntity
  8
0
370
              15
390
0
  6
Continuous
 62
               7
100
AcDbLine
 10
-16.376626492833566
 20
1643.5860985875242
 30
0.0
 11
-16.213957506600082
 21
1643.641366740105
 31
0.0
  0
LINE
  5
2B0
100
AcDbEntity
  8
0
370
              15
390
0
  6
Continuous
 62
               7
100
AcDbLine
 10
-16.54060283457261
 20
1643.5348391774423
 30
0.0
 11
-16.376626492833566
 21
1643.5860985875242
 31
0.0
  0
LINE
  5
2B1
100
AcDbEntity
  8
0
370
              15
390
0
  6
Continuous
 62
               7
100
AcDbLine
 10
-16.705787758599854
 20
1643.4876193866116
 30
0.0
 11
-16.54060283457261
 21
1643.5348391774423
 31
0.0
  0
LINE
  5
2B2
100
AcDbEntity
  8
0
370
              15
390
0
  6
Continuous
 62
               7
100
AcDbLine
 10
-16.872081763693814
 20
1643.4444676584681
 30
0.0
 11
-16.705787758599854
 21
1643.4876193866116
 31
0.0
  0
LINE
  5
2B3
100
AcDbEntity
  8
0
370
              15
390
0
  6
Continuous
 62
               7
100
AcDbLine
 10
-17.039384680564126
 20
1643.4054099859991
 30
0.0
 11
-16.872081763693814
 21
1643.4444676584681
 31
0.0
  0
LINE
  5
2B4
100
AcDbEntity
  8
0
370
              15
390
0
  6
Continuous
 62
               7
100
AcDbLine
 10
-17.207595732189475
 20
1643.3704698960864
 30
0.0
 11
-17.039384680564126
 21
1643.4054099859991
 31
0.0
  0
LINE
  5
2B5
100
AcDbEntity
  8
0
370
              15
390
0
  6
Continuous
 62
               7
100
AcDbLine
 10
-17.376613594522041
 20
1643.3396684353336
 30
0.0
 11
-17.207595732189475
 21
1643.3704698960864
 31
0.0
  0
LINE
  5
2B6
100
AcDbEntity
  8
0
370
              15
390
0
  6
Continuous
 62
               7
100
AcDbLine
 10
-17.546336457521647
 20
1643.313024157389
 30
0.0
 11
-17.376613594522041
 21
1643.3396684353336
 31
0.0
  0
LINE
  5
2B7
100
AcDbEntity
  8
0
370
              15
390
0
  6
Continuous
 62
               7
100
AcDbLine
 10
-17.716662086481847
 20
1643.290553111769
 30
0.0
 11
-17.546336457521647
 21
1643.313024157389
 31
0.0
  0
LINE
  5
2B8
100
AcDbEntity
  8
0
370
              15
390
0
  6
Continuous
 62
               7
100
AcDbLine
 10
-17.887487883612948
 20
1643.2722688341914
 30
0.0
 11
-17.716662086481847
 21
1643.290553111769
 31
0.0
  0
LINE
  5
2B9
100
AcDbEntity
  8
0
370
              15
390
0
  6
Continuous
 62
               7
100
AcDbLine
 10
-18.058710949841952
 20
1643.2581823384216
 30
0.0
 11
-17.887487883612948
 21
1643.2722688341914
 31
0.0
  0
LINE
  5
2BA
100
AcDbEntity
  8
0
370
              15
390
0
  6
Continuous
 62
               7
100
AcDbLine
 10
-18.23022814679689
 20
1643.2483021096375
 30
0.0
 11
-18.058710949841952
 21
1643.2581823384216
 31
0.0
  0
LINE
  5
2BB
100
AcDbEntity
  8
0
370
              15
390
0
  6
Continuous
 62
               7
100
AcDbLine
 10
-18.401936158930766
 20
1643.2426340993197
 30
0.0
 11
-18.23022814679689
 21
1643.2483021096375
 31
0.0
  0
LINE
  5
2BC
100
AcDbEntity
  8
0
370
              15
390
0
  6
Continuous
 62
               7
100
AcDbLine
 10
-18.573731555758286
 20
1643.2411817216657
 30
0.0
 11
-18.401936158930766
 21
1643.2426340993197
 31
0.0
  0
LINE
  5
2BD
100
AcDbEntity
  8
0
370
              15
390
0
  6
Continuous
 62
               7
100
AcDbLine
 10
-18.745510854156237
 20
1643.2439458515332
 30
0.0
 11
-18.573731555758286
 21
1643.2411817216657
 31
0.0
  0
LINE
  5
2BE
100
AcDbEntity
  8
0
370
              15
390
0
  6
Continuous
 62
               7
100
AcDbLine
 10
-18.917170580698212
 20
1643.2509248239144
 30
0.0
 11
-18.745510854156237
 21
1643.2439458515332
 31
0.0
  0
LINE
  5
2BF
100
AcDbEntity
  8
0
370
              15
390
0
  6
Continuous
 62
               7
100
AcDbLine
 10
-19.088607333983873
 20
1643.2621144349364
 30
0.0
 11
-18.917170580698212
 21
1643.2509248239144
 31
0.0
  0
LINE
  5
2C0
100
AcDbEntity
  8
0
370
              15
390
0
  6
Continuous
 62
               7
100
AcDbLine
 10
-19.25971784692365
 20
1643.2775079443966
 30
0.0
 11
-19.088607333983873
 21
1643.2621144349364
 31
0.0
  0
LINE
  5
2C1
100
AcDbEntity
  8
0
370
              15
390
0
  6
Continuous
 62
               7
100
AcDbLine
 10
-19.43039904894249
 20
1643.2970960798202
 30
0.0
 11
-19.25971784692365
 21
1643.2775079443966
 31
0.0
  0
LINE
  5
2C2
100
AcDbEntity
  8
0
370
              15
390
0
  6
Continuous
 62
               7
100
AcDbLine
 10
-19.600548128066748
 20
1643.320867042047
 30
0.0
 11
-19.43039904894249
 21
1643.2970960798202
 31
0.0
  0
LINE
  5
2C3
100
AcDbEntity
  8
0
370
              15
390
0
  6
Continuous
 62
               7
100
AcDbLine
 10
-19.770062592853265
 20
1643.3488065123381
 30
0.0
 11
-19.600548128066748
 21
1643.320867042047
 31
0.0
  0
LINE
  5
2C4
100
AcDbEntity
  8
0
370
              15
390
0
  6
Continuous
 62
               7
100
AcDbLine
 10
-19.93884033412678
 20
1643.3808976610012
 30
0.0
 11
-19.770062592853265
 21
1643.3488065123381
 31
0.0
  0
LINE
  5
2C5
100
AcDbEntity
  8
0
370
              15
390
0
  6
Continuous
 62
               7
100
AcDbLine
 10
-20.106779686487698
 20
1643.4171211575288
 30
0.0
 11
-19.93884033412678
 21
1643.3808976610012
 31
0.0
  0
WIPEOUT
  5
2C6
100
AcDbEntity
  8
0
370
              15
390
0
  6
Continuous
 62
               7
 92
        0
100
AcDbWipeout
 90
        0
 10
-2638.7749556735607
 20
1197.3186343512436
 30
0.0
 11
210.0
 21
0.0
 31
0.0
 12
0.0
 22
210.0
 32
0.0
 13
1.0
 23
1.0
340
0
 70
               7
280
               1
281
              50
282
              50
283
               0
360
0
 71
               2
 91
        5
 14
-0.5
 24
0.1666666666666656
 14
0.5
 24
0.1666666666666656
 14
0.5
 24
0.5
 14
-0.5
 24
0.5
 14
-0.5
 24
0.1666666666666656
  0
POLYLINE
  5
2C7
100
AcDbEntity
  8
0
370
              15
390
0
  6
Continuous
 62
               7
100
AcDb2dPolyline
 66
               1
 10
0.0
 20
0.0
 30
0.0
 70
               1
 75
               5
  0
VERTEX
  5
2C8
100
AcDbEntity
  8
0
370
              15
390
0
  6
Continuous
 62
               7
100
AcDbVertex
100
AcDb2dVertex
 10
-2638.7749556735607
 20
1267.3186343512439
 30
0.0
  0
VERTEX
  5
2C9
100
AcDbEntity
  8
0
370
              15
390
0
  6
Continuous
 62
               7
100
AcDbVertex
100
AcDb2dVertex
 10
-2428.7749556735607
 20
1267.3186343512439
 30
0.0
  0
VERTEX
  5
2CA
100
AcDbEntity
  8
0
370
              15
390
0
  6
Continuous
 62
               7
100
AcDbVertex
100
AcDb2dVertex
 10
-2428.7749556735607
 20
1197.3186343512436
 30
0.0
  0
VERTEX
  5
2CB
100
AcDbEntity
  8
0
370
              15
390
0
  6
Continuous
 62
               7
100
AcDbVertex
100
AcDb2dVertex
 10
-2638.7749556735607
 20
1197.3186343512436
 30
0.0
  0
SEQEND
  5
2CC
100
AcDbEntity
  8
0
370
              15
390
0
  6
Continuous
 62
               7
  0
WIPEOUT
  5
2CE
100
AcDbEntity
  8
0
370
              15
390
0
  6
Continuous
 62
               7
 92
        0
100
AcDbWipeout
 90
        0
 10
-3008.5285800187467
 20
1186.2699161159835
 30
0.0
 11
400.0
 21
0.0
 31
0.0
 12
0.0
 22
400.0
 32
0.0
 13
1.0
 23
1.0
340
0
 70
               7
280
               1
281
              50
282
              50
283
               0
360
0
 71
               2
 91
        5
 14
-0.5
 24
0.3624999999999994
 14
0.5
 24
0.3624999999999994
 14
0.5
 24
0.5
 14
-0.5
 24
0.5
 14
-0.5
 24
0.3624999999999994
  0
POLYLINE
  5
2CF
100
AcDbEntity
  8
0
370
              15
390
0
  6
Continuous
 62
               7
100
AcDb2dPolyline
 66
               1
 10
0.0
 20
0.0
 30
0.0
 70
               1
 75
               5
  0
VERTEX
  5
2D0
100
AcDbEntity
  8
0
370
              15
390
0
  6
Continuous
 62
               7
100
AcDbVertex
100
AcDb2dVertex
 10
-3008.5285800187467
 20
1241.2699161159837
 30
0.0
  0
VERTEX
  5
2D1
100
AcDbEntity
  8
0
370
              15
390
0
  6
Continuous
 62
               7
100
AcDbVertex
100
AcDb2dVertex
 10
-2608.5285800187467
 20
1241.2699161159837
 30
0.0
  0
VERTEX
  5
2D2
100
AcDbEntity
  8
0
370
              15
390
0
  6
Continuous
 62
               7
100
AcDbVertex
100
AcDb2dVertex
 10
-2608.5285800187467
 20
1186.2699161159835
 30
0.0
  0
VERTEX
  5
2D3
100
AcDbEntity
  8
0
370
              15
390
0
  6
Continuous
 62
               7
100
AcDbVertex
100
AcDb2dVertex
 10
-3008.5285800187467
 20
1186.2699161159835
 30
0.0
  0
SEQEND
  5
2D4
100
AcDbEntity
  8
0
370
              15
390
0
  6
Continuous
 62
               7
  0
WIPEOUT
  5
2D6
100
AcDbEntity
  8
0
370
              15
390
0
  6
Continuous
 62
               7
 92
        0
100
AcDbWipeout
 90
        0
 10
-2972.5475963785939
 20
-749.12179921783627
 30
0.0
 11
70.0
 21
0.0
 31
0.0
 12
0.0
 22
70.0
 32
0.0
 13
1.0
 23
1.0
340
0
 70
               7
280
               1
281
              50
282
              50
283
               0
360
0
 71
               2
 91
        5
 14
-0.5
 24
-0.3537683019357766
 14
0.5
 24
-0.3537683019357766
 14
0.5
 24
0.5
 14
-0.5
 24
0.5
 14
-0.5
 24
-0.3537683019357766
  0
POLYLINE
  5
2D7
100
AcDbEntity
  8
0
370
              15
390
0
  6
Continuous
 62
               7
100
AcDb2dPolyline
 66
               1
 10
0.0
 20
0.0
 30
0.0
 70
               1
 75
               5
  0
VERTEX
  5
2D8
100
AcDbEntity
  8
0
370
              15
390
0
  6
Continuous
 62
               7
100
AcDbVertex
100
AcDb2dVertex
 10
-2972.5475963785939
 20
-689.35801808233191
 30
0.0
  0
VERTEX
  5
2D9
100
AcDbEntity
  8
0
370
              15
390
0
  6
Continuous
 62
               7
100
AcDbVertex
100
AcDb2dVertex
 10
-2902.5475963785939
 20
-689.35801808233191
 30
0.0
  0
VERTEX
  5
2DA
100
AcDbEntity
  8
0
370
              15
390
0
  6
Continuous
 62
               7
100
AcDbVertex
100
AcDb2dVertex
 10
-2902.5475963785939
 20
-749.12179921783627
 30
0.0
  0
VERTEX
  5
2DB
100
AcDbEntity
  8
0
370
              15
390
0
  6
Continuous
 62
               7
100
AcDbVertex
100
AcDb2dVertex
 10
-2972.5475963785939
 20
-749.12179921783627
 30
0.0
  0
SEQEND
  5
2DC
100
AcDbEntity
  8
0
370
              15
390
0
  6
Continuous
 62
               7
  0
CIRCLE
  5
2DE
100
AcDbEntity
  8
0
370
              15
390
0
  6
Continuous
 62
               7
100
AcDbCircle
 10
-2937.2838152430895
 20
-718.35801808233191
 30
0.0
 40
24.999999999999986
  0
POLYLINE
  5
2DF
100
AcDbEntity
  8
0
370
              15
390
0
  6
Continuous
 62
               7
100
AcDb2dPolyline
 66
               1
 10
0.0
 20
0.0
 30
0.0
 70
               1
 75
               5
  0
VERTEX
  5
2E0
100
AcDbEntity
  8
0
370
              15
390
0
  6
Continuous
 62
               7
100
AcDbVertex
100
AcDb2dVertex
 10
-2942.990868496423
 20
-693.85801808233191
 30
0.0
  0
VERTEX
  5
2E1
100
AcDbEntity
  8
0
370
              15
390
0
  6
Continuous
 62
               7
100
AcDbVertex
100
AcDb2dVertex
 10
-2932.990868496423
 20
-693.85801808233191
 30
0.0
  0
VERTEX
  5
2E2
100
AcDbEntity
  8
0
370
              15
390
0
  6
Continuous
 62
               7
100
AcDbVertex
100
AcDb2dVertex
 10
-2932.990868496423
 20
-743.35801808233191
 30
0.0
  0
VERTEX
  5
2E3
100
AcDbEntity
  8
0
370
              15
390
0
  6
Continuous
 62
               7
100
AcDbVertex
100
AcDb2dVertex
 10
-2942.990868496423
 20
-743.35801808233191
 30
0.0
  0
SEQEND
  5
2E4
100
AcDbEntity
  8
0
370
              15
390
0
  6
Continuous
 62
               7
  0
ENDSEC
  0
SECTION
  2
OBJECTS
  0
DICTIONARY
  5
19
100
AcDbDictionary
280
               0
281
               1
  3
ACAD_GROUP
350
1A
  3
ACAD_MLINESTYLE
350
1B
  3
ACAD_LAYOUT
350
1E
  3
ACAD_PLOTSETTINGS
350
22
  3
ACAD_PLOTSTYLENAME
350
1F
  3
ACAD_WIPEOUT_VARS
350
23
  0
DICTIONARY
  5
1A
102
{ACAD_REACTORS
330
19
102
}
100
AcDbDictionary
280
               0
281
               1
  0
DICTIONARY
  5
1B
102
{ACAD_REACTORS
330
19
102
}
100
AcDbDictionary
280
               0
281
               1
  3
Standard
350
1C
  0
MLINESTYLE
  5
1C
102
{ACAD_REACTORS
330
1B
102
}
100
AcDbMlineStyle
  2
Standard
 70
               0
  3

 62
               0
 51
90.0
 52
90.0
 71
               2
 49
0.5
 62
             256
  6
ByLayer
 49
-0.5
 62
             256
  6
ByLayer
  0
ACDBDICTIONARYWDFLT
  5
1F
102
{ACAD_REACTORS
330
19
102
}
100
AcDbDictionary
281
               1
  3
Normal
350
1D
100
AcDbDictionaryWithDefault
340
1D
  0
ACDBPLACEHOLDER
  5
1D
102
{ACAD_REACTORS
330
1F
102
}
  0
LAYOUT
  5
20
102
{ACAD_REACTORS
330
1E
102
}
100
AcDbPlotSettings
  1

  2

  4

  6

 40
0.0
 41
0.0
 42
0.0
 43
0.0
 44
0.0
 45
0.0
 46
0.0
 47
0.0
 48
0.0
 49
0.0
140
0.0
141
0.0
142
1.0
143
1.0
 70
            1024
 72
               0
 73
               0
 74
               0
  7

 75
               0
147
1.0
148
0.0
149
0.0
100
AcDbLayout
  1
Model
 70
               0
 71
               0
 10
0.0
 20
0.0
 11
0.0
 21
0.0
 12
0.0
 22
0.0
 32
0.0
 14
0.0
 24
0.0
 34
0.0
 15
0.0
 25
0.0
 35
0.0
146
0.0
 13
0.0
 23
0.0
 33
0.0
 16
0.0
 26
0.0
 36
0.0
 17
0.0
 27
0.0
 37
0.0
 76
               0
330
A
331
0
345
0
346
0
  0
LAYOUT
  5
21
102
{ACAD_REACTORS
330
1E
102
}
100
AcDbPlotSettings
  1

  2

  4

  6

 40
0.0
 41
0.0
 42
0.0
 43
0.0
 44
0.0
 45
0.0
 46
0.0
 47
0.0
 48
0.0
 49
0.0
140
0.0
141
0.0
142
1.0
143
1.0
 70
               0
 72
               0
 73
               0
 74
               0
  7

 75
               0
147
1.0
148
0.0
149
0.0
100
AcDbLayout
  1
Layout1
 70
               0
 71
               0
 10
0.0
 20
0.0
 11
0.0
 21
0.0
 12
0.0
 22
0.0
 32
0.0
 14
0.0
 24
0.0
 34
0.0
 15
0.0
 25
0.0
 35
0.0
146
0.0
 13
0.0
 23
0.0
 33
0.0
 16
0.0
 26
0.0
 36
0.0
 17
0.0
 27
0.0
 37
0.0
 76
               0
330
B
331
0
345
0
346
0
  0
DICTIONARY
  5
1E
102
{ACAD_REACTORS
330
19
102
}
100
AcDbDictionary
280
               0
281
               1
  3
Layout1
350
21
  3
Model
350
20
  0
DICTIONARY
  5
22
102
{ACAD_REACTORS
330
19
102
}
100
AcDbDictionary
280
               0
281
               1
  0
WIPEOUTVARIABLES
  5
23
100
AcDbWipeoutVariables
 70
               0
  0
ENDSEC
  0
EOF
