  0
SECTION
  2
HEADER
  9
$ACADVER
  1
AC1015
  9
$ACADMAINTVER
 70
               6
  9
$DWGCODEPAGE
  3
ANSI_932
  9
$INSBASE
 10
0.0
 20
0.0
 30
0.0
  9
$EXTMIN
 10
-3236.1560435888514
 20
-858.59914432669461
 30
0.0
  9
$EXTMAX
 10
1199.3431131114748
 20
2451.1496640004393
 30
0.0
  9
$LIMMIN
 10
0.0
 20
0.0
  9
$LIMMAX
 10
0.0
 20
0.0
  9
$ORTHOMODE
 70
               0
  9
$REGENMODE
 70
               1
  9
$FILLMODE
 70
               1
  9
$QTEXTMODE
 70
               0
  9
$MIRRTEXT
 70
               1
  9
$LTSCALE
 40
101.59999999999999
  9
$ATTMODE
 70
               1
  9
$TEXTSIZE
 40
0.2
  9
$TRACEWID
 40
1.0
  9
$TEXTSTYLE
  7
Standard
  9
$CLAYER
  8
1
  9
$CELTYPE
  6
Continuous
  9
$CECOLOR
 62
             256
  9
$CELTSCALE
 40
1.0
  9
$DISPSILH
 70
               0
  9
$DIMSCALE
 40
1.0
  9
$DIMASZ
 40
0.18
  9
$DIMEXO
 40
0.0625
  9
$DIMDLI
 40
0.38
  9
$DIMRND
 40
0.0
  9
$DIMDLE
 40
0.0
  9
$DIMEXE
 40
0.18
  9
$DIMTP
 40
0.0
  9
$DIMTM
 40
0.0
  9
$DIMTXT
 40
0.18
  9
$DIMCEN
 40
0.09
  9
$DIMTSZ
 40
0.0
  9
$DIMTOL
 70
               0
  9
$DIMLIM
 70
               0
  9
$DIMTIH
 70
               1
  9
$DIMTOH
 70
               1
  9
$DIMSE1
 70
               0
  9
$DIMSE2
 70
               0
  9
$DIMTAD
 70
               0
  9
$DIMZIN
 70
               0
  9
$DIMBLK
  1

  9
$DIMASO
 70
               1
  9
$DIMSHO
 70
               1
  9
$DIMPOST
  1

  9
$DIMAPOST
  1

  9
$DIMALT
 70
               0
  9
$DIMALTD
 70
               2
  9
$DIMALTF
 40
25.399999999999999
  9
$DIMLFAC
 40
1.0
  9
$DIMTOFL
 70
               0
  9
$DIMTVP
 40
0.0
  9
$DIMTIX
 70
               0
  9
$DIMSOXD
 70
               0
  9
$DIMSAH
 70
               0
  9
$DIMBLK1
  1

  9
$DIMBLK2
  1

  9
$DIMSTYLE
  2
Standard
  9
$DIMCLRD
 70
               0
  9
$DIMCLRE
 70
               0
  9
$DIMCLRT
 70
               0
  9
$DIMTFAC
 40
1.0
  9
$DIMGAP
 40
0.09
  9
$DIMJUST
 70
               0
  9
$DIMSD1
 70
               0
  9
$DIMSD2
 70
               0
  9
$DIMTOLJ
 70
               1
  9
$DIMTZIN
 70
               0
  9
$DIMALTZ
 70
               0
  9
$DIMALTTZ
 70
               0
  9
$DIMUPT
 70
               0
  9
$DIMDEC
 70
               4
  9
$DIMTDEC
 70
               4
  9
$DIMALTU
 70
               2
  9
$DIMALTTD
 70
               2
  9
$DIMTXSTY
  7
Standard
  9
$DIMAUNIT
 70
               0
  9
$DIMADEC
 70
               0
  9
$DIMALTRND
 40
0.0
  9
$DIMAZIN
 70
               0
  9
$DIMDSEP
 70
               0
  9
$DIMATFIT
 70
               3
  9
$DIMFRAC
 70
               0
  9
$DIMLDRBLK
  1

  9
$DIMLUNIT
 70
               2
  9
$DIMLWD
 70
               0
  9
$DIMLWE
 70
               0
  9
$DIMTMOVE
 70
               0
  9
$LUNITS
 70
               2
  9
$LUPREC
 70
               4
  9
$SKETCHINC
 40
0.1
  9
$FILLETRAD
 40
0.0
  9
$AUNITS
 70
               0
  9
$AUPREC
 70
               0
  9
$MENU
  1
acad
  9
$ELEVATION
 40
0.0
  9
$PELEVATION
 40
0.0
  9
$THICKNESS
 40
0.0
  9
$LIMCHECK
 70
               0
  9
$CHAMFERA
 40
0.0
  9
$CHAMFERB
 40
0.0
  9
$CHAMFERC
 40
0.0
  9
$CHAMFERD
 40
0.0
  9
$SKPOLY
 70
               0
  9
$TDCREATE
 40
2456363.607025463
  9
$TDUCREATE
 40
0.000000000
  9
$TDUPDATE
 40
2456363.607025463
  9
$TDUUPDATE
 40
0.000000000
  9
$TDINDWG
 40
0.0000000000
  9
$TDUSRTIMER
 40
0.0000000000
  9
$USRTIMER
 70
               1
  9
$ANGBASE
 50
0.0
  9
$ANGDIR
 70
               0
  9
$PDMODE
 70
               1
  9
$PDSIZE
 40
-2.0
  9
$PLINEWID
 40
0.0
  9
$SPLFRAME
 70
               0
  9
$SPLINETYPE
 70
               6
  9
$SPLINESEGS
 70
               8
  9
$HANDSEED
  5
25C
  9
$SURFTAB1
 70
               6
  9
$SURFTAB2
 70
               6
  9
$SURFTYPE
 70
               6
  9
$SURFU
 70
               6
  9
$SURFV
 70
               6
  9
$UCSBASE
  2

  9
$UCSNAME
  2

  9
$UCSORG
 10
0.0
 20
0.0
 30
0.0
  9
$UCSXDIR
 10
1.0
 20
0.0
 30
0.0
  9
$UCSYDIR
 10
0.0
 20
1.0
 30
0.0
  9
$UCSORTHOREF
  2

  9
$UCSORTHOVIEW
 70
               0
  9
$UCSORGTOP
 10
0.0
 20
0.0
 30
0.0
  9
$UCSORGBOTTOM
 10
0.0
 20
0.0
 30
0.0
  9
$UCSORGLEFT
 10
0.0
 20
0.0
 30
0.0
  9
$UCSORGRIGHT
 10
0.0
 20
0.0
 30
0.0
  9
$UCSORGFRONT
 10
0.0
 20
0.0
 30
0.0
  9
$UCSORGBACK
 10
0.0
 20
0.0
 30
0.0
  9
$PUCSBASE
  2

  9
$PUCSNAME
  2

  9
$PUCSORG
 10
0.0
 20
0.0
 30
0.0
  9
$PUCSXDIR
 10
1.0
 20
0.0
 30
0.0
  9
$PUCSYDIR
 10
0.0
 20
1.0
 30
0.0
  9
$PUCSORTHOREF
  2

  9
$PUCSORTHOVIEW
 70
               0
  9
$PUCSORGTOP
 10
0.0
 20
0.0
 30
0.0
  9
$PUCSORGBOTTOM
 10
0.0
 20
0.0
 30
0.0
  9
$PUCSORGLEFT
 10
0.0
 20
0.0
 30
0.0
  9
$PUCSORGRIGHT
 10
0.0
 20
0.0
 30
0.0
  9
$PUCSORGFRONT
 10
0.0
 20
0.0
 30
0.0
  9
$PUCSORGBACK
 10
0.0
 20
0.0
 30
0.0
  9
$USERI1
 70
               0
  9
$USERI2
 70
               0
  9
$USERI3
 70
               0
  9
$USERI4
 70
               0
  9
$USERI5
 70
               0
  9
$USERR1
 40
0.0
  9
$USERR2
 40
0.0
  9
$USERR3
 40
0.0
  9
$USERR4
 40
0.0
  9
$USERR5
 40
0.0
  9
$WORLDVIEW
 70
               1
  9
$SHADEDGE
 70
               3
  9
$SHADEDIF
 70
              70
  9
$TILEMODE
 70
               1
  9
$MAXACTVP
 70
              64
  9
$PINSBASE
 10
0.0
 20
0.0
 30
0.0
  9
$PLIMCHECK
 70
               0
  9
$PEXTMIN
 10
1.0000000000000000E+20
 20
1.0000000000000000E+20
 30
1.0000000000000000E+20
  9
$PEXTMAX
 10
-1.0000000000000000E+20
 20
-1.0000000000000000E+20
 30
-1.0000000000000000E+20
  9
$PLIMMIN
 10
0.0
 20
0.0
  9
$PLIMMAX
 10
12.0
 20
9.0
  9
$UNITMODE
 70
               0
  9
$VISRETAIN
 70
               0
  9
$PLINEGEN
 70
               1
  9
$PSLTSCALE
 70
               0
  9
$TREEDEPTH
 70
            3020
  9
$CMLSTYLE
  2
Standard
  9
$CMLJUST
 70
               0
  9
$CMLSCALE
 40
1.0
  9
$PROXYGRAPHICS
 70
               0
  9
$MEASUREMENT
 70
               1
  9
$CELWEIGHT
370
               0
  9
$ENDCAPS
280
               0
  9
$JOINSTYLE
280
               0
  9
$LWDISPLAY
290
               1
  9
$INSUNITS
 70
               4
  9
$HYPERLINKBASE
  1

  9
$STYLESHEET
  1

  9
$XEDIT
290
               1
  9
$CEPSNTYPE
380
               0
  9
$PSTYLEMODE
290
               1
  9
$FINGERPRINTGUID
  2

  9
$VERSIONGUID
  2

  9
$EXTNAMES
290
               1
  9
$PSVPSCALE
 40
0.0
  0
ENDSEC
  0
SECTION
  2
CLASSES
  0
CLASS
  1
LWPOLYLINE
  2
AcDbPolyline
  3
AutoCAD 2000
 90
        0
280
               0
281
               1
  0
CLASS
  1
IMAGE
  2
AcDbRasterImage
  3
ISM
 90
      127
280
               0
281
               1
  0
CLASS
  1
OLE2FRAME
  2
AcDbOle2Frame
  3
AutoCAD 2000
 90
        0
280
               0
281
               1
  0
CLASS
  1
HATCH
  2
AcDbHatch
  3
AutoCAD 2000
 90
        0
280
               0
281
               1
  0
CLASS
  1
DICTIONARYVAR
  2
AcDbDictionaryVar
  3
AutoCAD 2000
 90
        0
280
               0
281
               0
  0
CLASS
  1
RASTERVARIABLES
  2
AcDbRasterVariables
  3
ISM
 90
        0
280
               0
281
               0
  0
CLASS
  1
IMAGEDEF
  2
AcDbRasterImageDef
  3
ISM
 90
        0
280
               0
281
               0
  0
CLASS
  1
IMAGEDEF_REACTOR
  2
AcDbRasterImageDefReactor
  3
ISM
 90
        1
280
               0
281
               0
  0
CLASS
  1
IDBUFFER
  2
AcDbIdBuffer
  3
AutoCAD 2000
 90
        0
280
               0
281
               0
  0
CLASS
  1
SPATIAL_FILTER
  2
AcDbSpatialFilter
  3
AutoCAD 2000
 90
        0
280
               0
281
               0
  0
CLASS
  1
XRECORD
  2
AcDbXrecord
  3
AutoCAD 2000
 90
        0
280
               0
281
               0
  0
CLASS
  1
SORTENTSTABLE
  2
AcDbSortentsTable
  3
AutoCAD 2000
 90
        0
280
               0
281
               0
  0
CLASS
  1
LAYER_INDEX
  2
AcDbLayerIndex
  3
AutoCAD 2000
 90
        0
280
               0
281
               0
  0
CLASS
  1
SPATIAL_INDEX
  2
AcDbSpatialIndex
  3
AutoCAD 2000
 90
        0
280
               0
281
               0
  0
CLASS
  1
OBJECT_PTR
  2
CAseDLPNTableRecord
  3
"ASE-LPNTableRecord"
 90
        1
280
               0
281
               0
  0
CLASS
  1
LAYOUT
  2
AcDbLayout
  3
AutoCAD 2000
 90
        0
280
               0
281
               0
  0
CLASS
  1
PLOTSETTINGS
  2
AcDbPlotSettings
  3
AutoCAD 2000
 90
        0
280
               0
281
               0
  0
CLASS
  1
ACDBDICTIONARYWDFLT
  2
AcDbDictionaryWithDefault
  3
AutoCAD 2000
 90
        0
280
               0
281
               0
  0
CLASS
  1
ACDBPLACEHOLDER
  2
AcDbPlaceHolder
  3
AutoCAD 2000
 90
        0
280
               0
281
               0
  0
CLASS
  1
VBA_PROJECT
  2
AcDbVbaProject
  3
acadvba
 90
        0
280
               0
281
               0
  0
CLASS
  1
WIPEOUT
  2
AcDbWipeout
  3
WipeOut|AutoCAD Express Tool|expresstools@autodesk.com
 90
      127
280
               0
281
               1
  0
CLASS
  1
WIPEOUTVARIABLES
  2
AcDbWipeoutVariables
  3
WipeOut|AutoCAD Express Tool|expresstools@autodesk.com
 90
        0
280
               0
281
               0
  0
CLASS
  1
RTEXT
  2
RText
  3
RText|AutoCAD Express Tool|expresstools@autodesk.com
 90
        0
280
               0
281
               1
  0
CLASS
  1
ARCALIGNEDTEXT
  2
AcDbArcAlignedText
  3
ATEXT|AutoCAD Express Tool|expresstools@autodesk.com
 90
        0
280
               0
281
               1
  0
ENDSEC
  0
SECTION
  2
TABLES
  0
TABLE
  2
VPORT
  5
7
100
AcDbSymbolTable
 70
               1
  0
VPORT
  5
15
100
AcDbSymbolTableRecord
100
AcDbViewportTableRecord
  2
*ACTIVE
 70
               0
 10
0.0
 20
0.0
 11
1.0
 21
1.0
 12
-1018.4064652386883
 22
796.27525983687224
 13
0.0
 23
0.0
 14
1.0
 24
1.0
 15
0.0
 25
0.0
 16
0.0
 26
0.0
 36
1.0
 17
0.0
 27
0.0
 37
0.0
 40
3309.7488083271337
 41
0.688564
 42
50.0
 43
0.0
 44
0.0
 50
0.0
 51
0.0
 71
               0
 72
            2000
 73
               1
 74
               1
 75
               0
 76
               0
 77
               0
 78
               0
281
               0
 65
               0
110
0.0
120
0.0
130
0.0
111
1.0
121
0.0
131
0.0
112
0.0
122
1.0
132
0.0
345
0
346
0
 79
               0
146
0.0
  0
ENDTAB
  0
TABLE
  2
LTYPE
  5
4
100
AcDbSymbolTable
 70
              18
  0
LTYPE
  5
11
100
AcDbSymbolTableRecord
100
AcDbLinetypeTableRecord
  2
ByBlock
 70
              64
  3

 72
              65
 73
               0
 40
0.0
  0
LTYPE
  5
12
100
AcDbSymbolTableRecord
100
AcDbLinetypeTableRecord
  2
ByLayer
 70
              64
  3

 72
              65
 73
               0
 40
0.0
  0
LTYPE
  5
13
100
AcDbSymbolTableRecord
100
AcDbLinetypeTableRecord
  2
Continuous
 70
              64
  3
Solid line
 72
              65
 73
               0
 40
0.0
  0
LTYPE
  5
26
100
AcDbSymbolTableRecord
100
AcDbLinetypeTableRecord
  2
STYLE_01
 70
               0
  3

 72
              65
 73
               2
 40
0.4166412353515625
 49
0.208282470703125
 74
               0
 49
-0.2083587646484375
 74
               0
  0
LTYPE
  5
27
100
AcDbSymbolTableRecord
100
AcDbLinetypeTableRecord
  2
STYLE_02
 70
               0
  3

 72
              65
 73
               2
 40
0.694427490234375
 49
0.4860687255859375
 74
               0
 49
-0.2083587646484375
 74
               0
  0
LTYPE
  5
28
100
AcDbSymbolTableRecord
100
AcDbLinetypeTableRecord
  2
STYLE_03
 70
               0
  3

 72
              65
 73
               2
 40
1.25
 49
1.0416412353515625
 74
               0
 49
-0.2083587646484375
 74
               0
  0
LTYPE
  5
29
100
AcDbSymbolTableRecord
100
AcDbLinetypeTableRecord
  2
STYLE_04
 70
               0
  3

 72
              65
 73
               2
 40
1.5277099609375
 49
1.319427490234375
 74
               0
 49
-0.208282470703125
 74
               0
  0
LTYPE
  5
2A
100
AcDbSymbolTableRecord
100
AcDbLinetypeTableRecord
  2
STYLE_05
 70
               0
  3

 72
              65
 73
               2
 40
0.208282470703125
 49
0.069427490234375
 74
               0
 49
-0.13885498046875
 74
               0
  0
LTYPE
  5
2B
100
AcDbSymbolTableRecord
100
AcDbLinetypeTableRecord
  2
STYLE_06
 70
               0
  3

 72
              65
 73
               4
 40
1.0416412353515625
 49
0.625
 74
               0
 49
-0.208282470703125
 74
               0
 49
0.069427490234375
 74
               0
 49
-0.1389312744140625
 74
               0
  0
LTYPE
  5
2C
100
AcDbSymbolTableRecord
100
AcDbLinetypeTableRecord
  2
STYLE_07
 70
               0
  3

 72
              65
 73
               6
 40
1.875
 49
0.625
 74
               0
 49
-0.208282470703125
 74
               0
 49
0.625
 74
               0
 49
-0.2083587646484375
 74
               0
 49
0.069427490234375
 74
               0
 49
-0.1389312744140625
 74
               0
  0
LTYPE
  5
2D
100
AcDbSymbolTableRecord
100
AcDbLinetypeTableRecord
  2
STYLE_08
 70
               0
  3

 72
              65
 73
               6
 40
1.25
 49
0.625
 74
               0
 49
-0.208282470703125
 74
               0
 49
0.069427490234375
 74
               0
 49
-0.1389312744140625
 74
               0
 49
0.069427490234375
 74
               0
 49
-0.1389312744140625
 74
               0
  0
LTYPE
  5
2E
100
AcDbSymbolTableRecord
100
AcDbLinetypeTableRecord
  2
STYLE_09
 70
               0
  3

 72
              65
 73
               4
 40
5.0
 49
3.75
 74
               0
 49
-0.2777862548828125
 74
               0
 49
0.694427490234375
 74
               0
 49
-0.2777862548828125
 74
               0
  0
LTYPE
  5
2F
100
AcDbSymbolTableRecord
100
AcDbLinetypeTableRecord
  2
STYLE_10
 70
               0
  3

 72
              65
 73
               6
 40
5.9375
 49
3.75
 74
               0
 49
-0.2777862548828125
 74
               0
 49
0.694427490234375
 74
               0
 49
-0.2777862548828125
 74
               0
 49
0.625
 74
               0
 49
-0.3125
 74
               0
  0
LTYPE
  5
30
100
AcDbSymbolTableRecord
100
AcDbLinetypeTableRecord
  2
STYLE_11
 70
               0
  3

 72
              65
 73
               2
 40
0.13885498046875
 49
0.069427490234375
 74
               0
 49
-0.069427490234375
 74
               0
  0
LTYPE
  5
31
100
AcDbSymbolTableRecord
100
AcDbLinetypeTableRecord
  2
STYLE_12
 70
               0
  3

 72
              65
 73
               6
 40
0.0098425196850394
 49
0.0049591064453125
 74
               0
 49
-0.0009918212890625
 74
               0
 49
0.0009918212890625
 74
               0
 49
-0.0009918212890625
 74
               0
 49
0.0009918212890625
 74
               0
 49
-0.0009918212890625
 74
               0
  0
LTYPE
  5
32
100
AcDbSymbolTableRecord
100
AcDbLinetypeTableRecord
  2
STYLE_13
 70
               0
  3

 72
              65
 73
               2
 40
0.2777862548828125
 49
0.2083587646484375
 74
               0
 49
-0.069427490234375
 74
               0
  0
LTYPE
  5
33
100
AcDbSymbolTableRecord
100
AcDbLinetypeTableRecord
  2
STYLE_14
 70
               0
  3

 72
              65
 73
               2
 40
0.3472137451171875
 49
0.208282470703125
 74
               0
 49
-0.1389312744140625
 74
               0
  0
LTYPE
  5
34
100
AcDbSymbolTableRecord
100
AcDbLinetypeTableRecord
  2
STYLE_15
 70
               0
  3

 72
              65
 73
               2
 40
0.2777099609375
 49
0.208282470703125
 74
               0
 49
-0.069427490234375
 74
               0
  0
ENDTAB
  0
TABLE
  2
LAYER
  5
2
100
AcDbSymbolTable
 70
               6
  0
LAYER
  5
14
100
AcDbSymbolTableRecord
100
AcDbLayerTableRecord
  2
0
 70
               0
 62
               7
  6
Continuous
290
               1
370
              18
390
1D
  0
LAYER
  5
35
100
AcDbSymbolTableRecord
100
AcDbLayerTableRecord
  2
一般
 70
               0
 62
               7
  6
Continuous
290
               1
370
               5
390
1D
  0
LAYER
  5
36
100
AcDbSymbolTableRecord
100
AcDbLayerTableRecord
  2
2
 70
               0
 62
               7
  6
Continuous
290
               1
370
               5
390
1D
  0
LAYER
  5
37
100
AcDbSymbolTableRecord
100
AcDbLayerTableRecord
  2
3
 70
               0
 62
               7
  6
Continuous
290
               1
370
               5
390
1D
  0
LAYER
  5
38
100
AcDbSymbolTableRecord
100
AcDbLayerTableRecord
  2
寸法
 70
               0
 62
               7
  6
Continuous
290
               1
370
               5
390
1D
  0
LAYER
  5
39
100
AcDbSymbolTableRecord
100
AcDbLayerTableRecord
  2
1
 70
               0
 62
               7
  6
Continuous
290
               1
370
              15
390
1D
  0
ENDTAB
  0
TABLE
  2
STYLE
  5
3
100
AcDbSymbolTable
 70
               3
  0
STYLE
  5
17
100
AcDbSymbolTableRecord
100
AcDbTextStyleTableRecord
  2
Standard
 70
               0
 40
0.0
 41
1.0
 50
0.0
 71
               0
 42
0.0
  3
txt
  4
BIGFONT.SHX
  0
STYLE
  5
24
100
AcDbSymbolTableRecord
100
AcDbTextStyleTableRecord
  2
Arial
 70
               0
 40
0.0
 41
1.0
 50
0.0
 71
               0
 42
0.0
  3

  4
Arial
1001
ACAD
1000
Arial
1071
        0
  0
STYLE
  5
25
100
AcDbSymbolTableRecord
100
AcDbTextStyleTableRecord
  2
Arial (bold)
 70
               0
 40
0.0
 41
1.0
 50
0.0
 71
               0
 42
0.0
  3

  4
Arial
1001
ACAD
1000
Arial
1071
 33554432
  0
ENDTAB
  0
TABLE
  2
VIEW
  5
5
100
AcDbSymbolTable
 70
               0
  0
ENDTAB
  0
TABLE
  2
UCS
  5
6
100
AcDbSymbolTable
 70
               0
  0
ENDTAB
  0
TABLE
  2
APPID
  5
8
100
AcDbSymbolTable
 70
               1
  0
APPID
  5
16
100
AcDbSymbolTableRecord
100
AcDbRegAppTableRecord
  2
ACAD
 70
               0
  0
ENDTAB
  0
TABLE
  2
DIMSTYLE
  5
9
100
AcDbSymbolTable
 70
               1
100
AcDbDimStyleTable
 71
               0
  0
DIMSTYLE
105
18
100
AcDbSymbolTableRecord
100
AcDbDimStyleTableRecord
  2
Standard
 70
               0
  3

  4

 40
1.0
 41
0.18
 42
0.0625
 43
0.38
 44
0.18
 45
0.0
 46
0.0
 47
0.0
 48
0.0
 71
               0
 72
               0
 73
               1
 74
               1
 75
               0
 76
               0
 77
               0
 78
               0
 79
               0
140
0.18
141
0.09
142
0.0
143
25.399999999999999
144
1.0
145
0.0
146
1.0
147
0.09
148
0.0
170
               0
171
               2
172
               0
173
               0
174
               0
175
               0
176
               0
177
               0
178
               0
179
               0
271
               4
272
               4
273
               2
274
               2
275
               0
276
               0
277
               2
278
              46
279
               0
280
               0
281
               0
282
               0
283
               1
284
               0
285
               0
286
               0
288
               0
289
               3
340
17
341
0
342
0
343
0
344
0
371
              -2
372
              -2
  0
ENDTAB
  0
TABLE
  2
BLOCK_RECORD
  5
1
100
AcDbSymbolTable
 70
               0
  0
BLOCK_RECORD
  5
A
100
AcDbSymbolTableRecord
100
AcDbBlockTableRecord
  2
*MODEL_SPACE
340
20
  0
BLOCK_RECORD
  5
B
100
AcDbSymbolTableRecord
100
AcDbBlockTableRecord
  2
*PAPER_SPACE
340
21
  0
ENDTAB
  0
ENDSEC
  0
SECTION
  2
BLOCKS
  0
BLOCK
  5
D
100
AcDbEntity
  8
0
390
0
100
AcDbBlockBegin
  2
*MODEL_SPACE
 70
               0
 10
0.0
 20
0.0
 30
0.0
  3
*MODEL_SPACE
  1

  0
ENDBLK
  5
E
100
AcDbEntity
  8
0
390
0
100
AcDbBlockEnd
  0
BLOCK
  5
F
100
AcDbEntity
 67
               1
  8
0
390
0
100
AcDbBlockBegin
  2
*PAPER_SPACE
 70
               0
 10
0.0
 20
0.0
 30
0.0
  3
*PAPER_SPACE
  1

  0
ENDBLK
  5
10
100
AcDbEntity
 67
               1
  8
0
390
0
100
AcDbBlockEnd
  0
ENDSEC
  0
SECTION
  2
ENTITIES
  0
WIPEOUT
  5
3A
100
AcDbEntity
  8
1
370
               5
390
0
  6
Continuous
 62
               7
 92
        0
100
AcDbWipeout
 90
        0
 10
385.83379472809133
 20
2173.2014668857141
 30
0.0
 11
550.49869791666674
 21
0.0
 31
0.0
 12
0.0
 22
550.49869791666674
 32
0.0
 13
1.0
 23
1.0
340
0
 70
               7
280
               1
281
              50
282
              50
283
               0
360
0
 71
               2
 91
        5
 14
-0.5
 24
0.5
 14
0.5
 24
0.5
 14
0.5
 24
0.3231300690898166
 14
-0.5
 24
0.3231300690898166
 14
-0.5
 24
0.5
  0
MTEXT
  5
3B
100
AcDbEntity
  8
1
390
0
 62
               7
100
AcDbMText
 10
385.83379472809133
 20
2255.0018141079363
 30
0.0
 40
60.633680555555543
 41
0.0
 71
               1
 72
               1
  1
N.TEC,Co.Ltd.
  7
Arial
 73
               1
 44
0.9673603504928806
  0
MTEXT
  5
3C
100
AcDbEntity
  8
2
390
0
 62
               7
100
AcDbMText
 10
371.36264436147508
 20
2433.0433445559947
 30
0.0
 40
60.633680555555543
 41
0.0
 71
               1
 72
               1
  1
GAGGENAU  RW414
  7
Arial (bold)
 73
               1
 44
0.992595837897043
  0
LINE
  5
3D
100
AcDbEntity
  8
一般
370
              18
390
0
  6
Continuous
 62
               7
100
AcDbLine
 10
-1683.6982017932005
 20
-584.69149289467941
 30
0.0
 11
-1683.6982017932005
 21
-679.69149289467941
 31
0.0
  0
LINE
  5
3E
100
AcDbEntity
  8
一般
370
              18
390
0
  6
Continuous
 62
               7
100
AcDbLine
 10
-1709.7572054867414
 20
-679.74830756541564
 30
0.0
 11
-1709.7572054867414
 21
-759.74830756541564
 31
0.0
  0
LINE
  5
3F
100
AcDbEntity
  8
一般
370
              18
390
0
  6
Continuous
 62
               7
100
AcDbLine
 10
-1732.8833964080382
 20
-759.83354273502709
 30
0.0
 11
-1732.8833964080382
 21
-834.83354273502709
 31
0.0
  0
LINE
  5
40
100
AcDbEntity
  8
一般
370
               5
390
0
  6
Continuous
 62
               7
100
AcDbLine
 10
-3227.9999914094824
 20
1711.444875109546
 30
0.0
 11
-2776.9999914094824
 21
1711.444875109546
 31
0.0
  0
POLYLINE
  5
41
100
AcDbEntity
  8
一般
370
              18
390
0
  6
Continuous
 62
               7
100
AcDb2dPolyline
 66
               1
 10
0.0
 20
0.0
 30
0.0
 70
               1
 75
               5
  0
VERTEX
  5
42
100
AcDbEntity
  8
一般
370
              18
390
0
  6
Continuous
 62
               7
100
AcDbVertex
100
AcDb2dVertex
 10
-3228.1262053794344
 20
2319.4578154101773
 30
0.0
  0
VERTEX
  5
43
100
AcDbEntity
  8
一般
370
              18
390
0
  6
Continuous
 62
               7
100
AcDbVertex
100
AcDb2dVertex
 10
-2777.1262053794344
 20
2319.4578154101773
 30
0.0
  0
VERTEX
  5
44
100
AcDbEntity
  8
一般
370
              18
390
0
  6
Continuous
 62
               7
100
AcDbVertex
100
AcDb2dVertex
 10
-2777.1262053794344
 20
1764.457815410185
 30
0.0
  0
VERTEX
  5
45
100
AcDbEntity
  8
一般
370
              18
390
0
  6
Continuous
 62
               7
100
AcDbVertex
100
AcDb2dVertex
 10
-3228.1262053794344
 20
1764.457815410185
 30
0.0
  0
SEQEND
  5
46
100
AcDbEntity
  8
一般
370
              18
390
0
  6
Continuous
 62
               7
  0
POLYLINE
  5
48
100
AcDbEntity
  8
一般
370
              15
390
0
  6
Continuous
 62
               7
100
AcDb2dPolyline
 66
               1
 10
0.0
 20
0.0
 30
0.0
 70
               1
 75
               5
  0
VERTEX
  5
49
100
AcDbEntity
  8
一般
370
              15
390
0
  6
Continuous
 62
               7
100
AcDbVertex
100
AcDb2dVertex
 10
-3224.7843223030168
 20
1764.4625928205392
 30
0.0
  0
VERTEX
  5
4A
100
AcDbEntity
  8
一般
370
              15
390
0
  6
Continuous
 62
               7
100
AcDbVertex
100
AcDb2dVertex
 10
-2779.7843223030168
 20
1764.4625928205392
 30
0.0
  0
VERTEX
  5
4B
100
AcDbEntity
  8
一般
370
              15
390
0
  6
Continuous
 62
               7
100
AcDbVertex
100
AcDb2dVertex
 10
-2779.7843223030168
 20
1743.4625928205396
 30
0.0
  0
VERTEX
  5
4C
100
AcDbEntity
  8
一般
370
              15
390
0
  6
Continuous
 62
               7
100
AcDbVertex
100
AcDb2dVertex
 10
-3224.7843223030168
 20
1743.4625928205396
 30
0.0
  0
SEQEND
  5
4D
100
AcDbEntity
  8
一般
370
              15
390
0
  6
Continuous
 62
               7
  0
POLYLINE
  5
4F
100
AcDbEntity
  8
一般
370
              15
390
0
  6
Continuous
 62
               7
100
AcDb2dPolyline
 66
               1
 10
0.0
 20
0.0
 30
0.0
 70
               1
 75
               5
  0
VERTEX
  5
50
100
AcDbEntity
  8
一般
370
              15
390
0
  6
Continuous
 62
               7
100
AcDbVertex
100
AcDb2dVertex
 10
-3224.7843223030168
 20
1743.4625928205396
 30
0.0
  0
VERTEX
  5
51
100
AcDbEntity
  8
一般
370
              15
390
0
  6
Continuous
 62
               7
100
AcDbVertex
100
AcDb2dVertex
 10
-2779.7843223030168
 20
1743.4625928205396
 30
0.0
  0
VERTEX
  5
52
100
AcDbEntity
  8
一般
370
              15
390
0
  6
Continuous
 62
               7
100
AcDbVertex
100
AcDb2dVertex
 10
-2779.7843223030168
 20
1713.4625928205401
 30
0.0
  0
VERTEX
  5
53
100
AcDbEntity
  8
一般
370
              15
390
0
  6
Continuous
 62
               7
100
AcDbVertex
100
AcDb2dVertex
 10
-3224.7843223030168
 20
1713.4625928205401
 30
0.0
  0
SEQEND
  5
54
100
AcDbEntity
  8
一般
370
              15
390
0
  6
Continuous
 62
               7
  0
POLYLINE
  5
56
100
AcDbEntity
  8
一般
370
              18
390
0
  6
Continuous
 62
               7
100
AcDb2dPolyline
 66
               1
 10
0.0
 20
0.0
 30
0.0
 70
               1
 75
               5
  0
VERTEX
  5
57
100
AcDbEntity
  8
一般
370
              18
390
0
  6
Continuous
 62
               7
100
AcDbVertex
100
AcDb2dVertex
 10
-3228.1262053794344
 20
1266.3554746355671
 30
0.0
  0
VERTEX
  5
58
100
AcDbEntity
  8
一般
370
              18
390
0
  6
Continuous
 62
               7
100
AcDbVertex
100
AcDb2dVertex
 10
-2777.1262053794344
 20
1266.3554746355671
 30
0.0
  0
VERTEX
  5
59
100
AcDbEntity
  8
一般
370
              18
390
0
  6
Continuous
 62
               7
100
AcDbVertex
100
AcDb2dVertex
 10
-2777.1262053794344
 20
-834.64452536443287
 30
0.0
  0
VERTEX
  5
5A
100
AcDbEntity
  8
一般
370
              18
390
0
  6
Continuous
 62
               7
100
AcDbVertex
100
AcDb2dVertex
 10
-3228.1262053794344
 20
-834.64452536443287
 30
0.0
  0
SEQEND
  5
5B
100
AcDbEntity
  8
一般
370
              18
390
0
  6
Continuous
 62
               7
  0
LINE
  5
5D
100
AcDbEntity
  8
一般
370
              18
390
0
  6
Continuous
 62
               7
100
AcDbLine
 10
-2235.6942440740431
 20
-584.66959197526398
 30
0.0
 11
-1680.6942440740431
 21
-584.66959197526398
 31
0.0
  0
POLYLINE
  5
5E
100
AcDbEntity
  8
寸法
370
              15
390
0
  6
Continuous
 62
               7
100
AcDb2dPolyline
 66
               1
 10
0.0
 20
0.0
 30
0.0
 70
               1
 75
               5
  0
VERTEX
  5
5F
100
AcDbEntity
  8
寸法
370
              15
390
0
  6
Continuous
 62
               7
100
AcDbVertex
100
AcDb2dVertex
 10
-3236.1560435888514
 20
-855.08554359516393
 30
0.0
  0
VERTEX
  5
60
100
AcDbEntity
  8
寸法
370
              15
390
0
  6
Continuous
 62
               7
100
AcDbVertex
100
AcDb2dVertex
 10
-3206.1560435888514
 20
-855.08554359516393
 30
0.0
  0
VERTEX
  5
61
100
AcDbEntity
  8
寸法
370
              15
390
0
  6
Continuous
 62
               7
100
AcDbVertex
100
AcDb2dVertex
 10
-3206.1560435888514
 20
-858.58554359516393
 30
0.0
  0
VERTEX
  5
62
100
AcDbEntity
  8
寸法
370
              15
390
0
  6
Continuous
 62
               7
100
AcDbVertex
100
AcDb2dVertex
 10
-3236.1560435888514
 20
-858.58554359516393
 30
0.0
  0
SEQEND
  5
63
100
AcDbEntity
  8
寸法
370
              15
390
0
  6
Continuous
 62
               7
  0
WIPEOUT
  5
65
100
AcDbEntity
  8
寸法
370
              15
390
0
  6
Continuous
 62
               7
 92
        0
100
AcDbWipeout
 90
        0
 10
-3227.8135648306188
 20
-855.08554359516393
 30
0.0
 11
20.471841620039868
 21
0.0
 31
0.0
 12
0.0
 22
20.471841620039868
 32
0.0
 13
1.0
 23
1.0
340
0
 70
               7
280
               1
281
              50
282
              50
283
               0
360
0
 71
               2
 91
        5
 14
-0.5
 24
-0.5
 14
0.1350185899872491
 24
-0.5
 14
0.1350185899872491
 24
0.5
 14
-0.5
 24
0.5
 14
-0.5
 24
-0.5
  0
POLYLINE
  5
66
100
AcDbEntity
  8
寸法
370
              15
390
0
  6
Continuous
 62
               7
100
AcDb2dPolyline
 66
               1
 10
0.0
 20
0.0
 30
0.0
 70
               1
 75
               5
  0
VERTEX
  5
67
100
AcDbEntity
  8
寸法
370
              15
390
0
  6
Continuous
 62
               7
100
AcDbVertex
100
AcDb2dVertex
 10
-3227.8135648306188
 20
-834.61370197512406
 30
0.0
  0
VERTEX
  5
68
100
AcDbEntity
  8
寸法
370
              15
390
0
  6
Continuous
 62
               7
100
AcDbVertex
100
AcDb2dVertex
 10
-3214.8135648306188
 20
-834.61370197512406
 30
0.0
  0
VERTEX
  5
69
100
AcDbEntity
  8
寸法
370
              15
390
0
  6
Continuous
 62
               7
100
AcDbVertex
100
AcDb2dVertex
 10
-3214.8135648306188
 20
-855.08554359516393
 30
0.0
  0
VERTEX
  5
6A
100
AcDbEntity
  8
寸法
370
              15
390
0
  6
Continuous
 62
               7
100
AcDbVertex
100
AcDb2dVertex
 10
-3227.8135648306188
 20
-855.08554359516393
 30
0.0
  0
SEQEND
  5
6B
100
AcDbEntity
  8
寸法
370
              15
390
0
  6
Continuous
 62
               7
  0
POLYLINE
  5
6D
100
AcDbEntity
  8
寸法
370
              15
390
0
  6
Continuous
 62
               7
100
AcDb2dPolyline
 66
               1
 10
0.0
 20
0.0
 30
0.0
 70
               1
 75
               5
  0
VERTEX
  5
6E
100
AcDbEntity
  8
寸法
370
              15
390
0
  6
Continuous
 62
               7
100
AcDbVertex
100
AcDb2dVertex
 10
-2798.4140800496734
 20
-855.08554359516393
 30
0.0
  0
VERTEX
  5
6F
100
AcDbEntity
  8
寸法
370
              15
390
0
  6
Continuous
 62
               7
100
AcDbVertex
100
AcDb2dVertex
 10
-2768.4140800496734
 20
-855.08554359516393
 30
0.0
  0
VERTEX
  5
70
100
AcDbEntity
  8
寸法
370
              15
390
0
  6
Continuous
 62
               7
100
AcDbVertex
100
AcDb2dVertex
 10
-2768.4140800496734
 20
-858.58554359516393
 30
0.0
  0
VERTEX
  5
71
100
AcDbEntity
  8
寸法
370
              15
390
0
  6
Continuous
 62
               7
100
AcDbVertex
100
AcDb2dVertex
 10
-2798.4140800496734
 20
-858.58554359516393
 30
0.0
  0
SEQEND
  5
72
100
AcDbEntity
  8
寸法
370
              15
390
0
  6
Continuous
 62
               7
  0
WIPEOUT
  5
74
100
AcDbEntity
  8
寸法
370
              15
390
0
  6
Continuous
 62
               7
 92
        0
100
AcDbWipeout
 90
        0
 10
-2790.0716012914399
 20
-855.08554359516393
 30
0.0
 11
20.471841620039868
 21
0.0
 31
0.0
 12
0.0
 22
20.471841620039868
 32
0.0
 13
1.0
 23
1.0
340
0
 70
               7
280
               1
281
              50
282
              50
283
               0
360
0
 71
               2
 91
        5
 14
-0.5
 24
-0.5
 14
0.1350185899872491
 24
-0.5
 14
0.1350185899872491
 24
0.5
 14
-0.5
 24
0.5
 14
-0.5
 24
-0.5
  0
POLYLINE
  5
75
100
AcDbEntity
  8
寸法
370
              15
390
0
  6
Continuous
 62
               7
100
AcDb2dPolyline
 66
               1
 10
0.0
 20
0.0
 30
0.0
 70
               1
 75
               5
  0
VERTEX
  5
76
100
AcDbEntity
  8
寸法
370
              15
390
0
  6
Continuous
 62
               7
100
AcDbVertex
100
AcDb2dVertex
 10
-2790.0716012914399
 20
-834.61370197512406
 30
0.0
  0
VERTEX
  5
77
100
AcDbEntity
  8
寸法
370
              15
390
0
  6
Continuous
 62
               7
100
AcDbVertex
100
AcDb2dVertex
 10
-2777.0716012914399
 20
-834.61370197512406
 30
0.0
  0
VERTEX
  5
78
100
AcDbEntity
  8
寸法
370
              15
390
0
  6
Continuous
 62
               7
100
AcDbVertex
100
AcDb2dVertex
 10
-2777.0716012914399
 20
-855.08554359516393
 30
0.0
  0
VERTEX
  5
79
100
AcDbEntity
  8
寸法
370
              15
390
0
  6
Continuous
 62
               7
100
AcDbVertex
100
AcDb2dVertex
 10
-2790.0716012914399
 20
-855.08554359516393
 30
0.0
  0
SEQEND
  5
7A
100
AcDbEntity
  8
寸法
370
              15
390
0
  6
Continuous
 62
               7
  0
POLYLINE
  5
7C
100
AcDbEntity
  8
一般
370
              18
390
0
  6
Continuous
 62
               7
100
AcDb2dPolyline
 66
               1
 10
0.0
 20
0.0
 30
0.0
 70
               1
 75
               5
  0
VERTEX
  5
7D
100
AcDbEntity
  8
一般
370
              18
390
0
  6
Continuous
 62
               7
100
AcDbVertex
100
AcDb2dVertex
 10
-3228.1371813310752
 20
1186.3285772981517
 30
0.0
  0
VERTEX
  5
7E
100
AcDbEntity
  8
一般
370
              18
390
0
  6
Continuous
 62
               7
100
AcDbVertex
100
AcDb2dVertex
 10
-2777.1371813310752
 20
1186.3285772981517
 30
0.0
  0
VERTEX
  5
7F
100
AcDbEntity
  8
一般
370
              18
390
0
  6
Continuous
 62
               7
100
AcDbVertex
100
AcDb2dVertex
 10
-2777.1371813310752
 20
-583.67142270184831
 30
0.0
  0
VERTEX
  5
80
100
AcDbEntity
  8
一般
370
              18
390
0
  6
Continuous
 62
               7
100
AcDbVertex
100
AcDb2dVertex
 10
-3228.1371813310752
 20
-583.67142270184831
 30
0.0
  0
SEQEND
  5
81
100
AcDbEntity
  8
一般
370
              18
390
0
  6
Continuous
 62
               7
  0
LINE
  5
83
100
AcDbEntity
  8
一般
370
               5
390
0
  6
STYLE_06
 62
               7
100
AcDbLine
 10
-3228.1262053794344
 20
1186.3285772981517
 30
0.0
 11
-2777.1262053794344
 21
298.03407329887034
 31
0.0
  0
LINE
  5
84
100
AcDbEntity
  8
一般
370
               5
390
0
  6
STYLE_06
 62
               7
100
AcDbLine
 10
-2777.1262053794344
 20
298.03407329887034
 30
0.0
 11
-3228.1262053794344
 21
-583.67142270184831
 31
0.0
  0
LINE
  5
85
100
AcDbEntity
  8
一般
370
              18
390
0
  6
Continuous
 62
               7
100
AcDbLine
 10
-2235.6942440740431
 20
-584.66959197526398
 30
0.0
 11
-2235.6942440740431
 21
1266.3554746355751
 31
0.0
  0
LINE
  5
86
100
AcDbEntity
  8
一般
370
              18
390
0
  6
Continuous
 62
               7
100
AcDbLine
 10
-1732.8833964080382
 20
-834.64452536443287
 30
0.0
 11
-2205.4252671870249
 21
-834.64452536443287
 31
0.0
  0
LINE
  5
87
100
AcDbEntity
  8
一般
370
              18
390
0
  6
Continuous
 62
               7
100
AcDbLine
 10
-2235.6942440740431
 20
1266.3554746355751
 30
0.0
 11
-1680.6942440740431
 21
1266.3554746355751
 31
0.0
  0
LINE
  5
88
100
AcDbEntity
  8
一般
370
              18
390
0
  6
Continuous
 62
               7
100
AcDbLine
 10
-2205.4252671870249
 20
-834.44367028723946
 30
0.0
 11
-2205.4252671870254
 21
-584.66959197526398
 31
0.0
  0
LINE
  5
89
100
AcDbEntity
  8
一般
370
              18
390
0
  6
Continuous
 62
               7
100
AcDbLine
 10
-1680.6942440740431
 20
-584.66959197526398
 30
0.0
 11
-1680.6942440740431
 21
1266.3554746355751
 31
0.0
  0
POLYLINE
  5
8A
100
AcDbEntity
  8
一般
370
              15
390
0
  6
Continuous
 62
               7
100
AcDb2dPolyline
 66
               1
 10
0.0
 20
0.0
 30
0.0
 70
               1
 75
               5
  0
VERTEX
  5
8B
100
AcDbEntity
  8
一般
370
              15
390
0
  6
Continuous
 62
               7
100
AcDbVertex
100
AcDb2dVertex
 10
-1680.69847797285
 20
1186.3712003316552
 30
0.0
  0
VERTEX
  5
8C
100
AcDbEntity
  8
一般
370
              15
390
0
  6
Continuous
 62
               7
100
AcDbVertex
100
AcDb2dVertex
 10
-1659.69847797285
 20
1186.3712003316552
 30
0.0
  0
VERTEX
  5
8D
100
AcDbEntity
  8
一般
370
              15
390
0
  6
Continuous
 62
               7
100
AcDbVertex
100
AcDb2dVertex
 10
-1659.69847797285
 20
-560.62879966834475
 30
0.0
  0
VERTEX
  5
8E
100
AcDbEntity
  8
一般
370
              15
390
0
  6
Continuous
 62
               7
100
AcDbVertex
100
AcDb2dVertex
 10
-1680.69847797285
 20
-560.62879966834475
 30
0.0
  0
SEQEND
  5
8F
100
AcDbEntity
  8
一般
370
              15
390
0
  6
Continuous
 62
               7
  0
POLYLINE
  5
91
100
AcDbEntity
  8
一般
370
              15
390
0
  6
Continuous
 62
               7
100
AcDb2dPolyline
 66
               1
 10
0.0
 20
0.0
 30
0.0
 70
               1
 75
               5
  0
VERTEX
  5
92
100
AcDbEntity
  8
一般
370
              15
390
0
  6
Continuous
 62
               7
100
AcDbVertex
100
AcDb2dVertex
 10
-1659.69847797285
 20
1186.3712003316552
 30
0.0
  0
VERTEX
  5
93
100
AcDbEntity
  8
一般
370
              15
390
0
  6
Continuous
 62
               7
100
AcDbVertex
100
AcDb2dVertex
 10
-1629.69847797285
 20
1186.3712003316552
 30
0.0
  0
VERTEX
  5
94
100
AcDbEntity
  8
一般
370
              15
390
0
  6
Continuous
 62
               7
100
AcDbVertex
100
AcDb2dVertex
 10
-1629.69847797285
 20
-583.62879966834475
 30
0.0
  0
VERTEX
  5
95
100
AcDbEntity
  8
一般
370
              15
390
0
  6
Continuous
 62
               7
100
AcDbVertex
100
AcDb2dVertex
 10
-1659.69847797285
 20
-583.62879966834475
 30
0.0
  0
SEQEND
  5
96
100
AcDbEntity
  8
一般
370
              15
390
0
  6
Continuous
 62
               7
  0
POLYLINE
  5
98
100
AcDbEntity
  8
寸法
370
              15
390
0
  6
Continuous
 62
               7
100
AcDb2dPolyline
 66
               1
 10
0.0
 20
0.0
 30
0.0
 70
               1
 75
               5
  0
VERTEX
  5
99
100
AcDbEntity
  8
寸法
370
              15
390
0
  6
Continuous
 62
               7
100
AcDbVertex
100
AcDb2dVertex
 10
-1761.268106081322
 20
-855.08554359516393
 30
0.0
  0
VERTEX
  5
9A
100
AcDbEntity
  8
寸法
370
              15
390
0
  6
Continuous
 62
               7
100
AcDbVertex
100
AcDb2dVertex
 10
-1731.268106081322
 20
-855.08554359516393
 30
0.0
  0
VERTEX
  5
9B
100
AcDbEntity
  8
寸法
370
              15
390
0
  6
Continuous
 62
               7
100
AcDbVertex
100
AcDb2dVertex
 10
-1731.268106081322
 20
-858.58554359516393
 30
0.0
  0
VERTEX
  5
9C
100
AcDbEntity
  8
寸法
370
              15
390
0
  6
Continuous
 62
               7
100
AcDbVertex
100
AcDb2dVertex
 10
-1761.268106081322
 20
-858.58554359516393
 30
0.0
  0
SEQEND
  5
9D
100
AcDbEntity
  8
寸法
370
              15
390
0
  6
Continuous
 62
               7
  0
WIPEOUT
  5
9F
100
AcDbEntity
  8
寸法
370
              15
390
0
  6
Continuous
 62
               7
 92
        0
100
AcDbWipeout
 90
        0
 10
-1752.9256273230894
 20
-855.08554359516393
 30
0.0
 11
20.471841620039868
 21
0.0
 31
0.0
 12
0.0
 22
20.471841620039868
 32
0.0
 13
1.0
 23
1.0
340
0
 70
               7
280
               1
281
              50
282
              50
283
               0
360
0
 71
               2
 91
        5
 14
-0.5
 24
-0.5
 14
0.1350185899872491
 24
-0.5
 14
0.1350185899872491
 24
0.5
 14
-0.5
 24
0.5
 14
-0.5
 24
-0.5
  0
POLYLINE
  5
A0
100
AcDbEntity
  8
寸法
370
              15
390
0
  6
Continuous
 62
               7
100
AcDb2dPolyline
 66
               1
 10
0.0
 20
0.0
 30
0.0
 70
               1
 75
               5
  0
VERTEX
  5
A1
100
AcDbEntity
  8
寸法
370
              15
390
0
  6
Continuous
 62
               7
100
AcDbVertex
100
AcDb2dVertex
 10
-1752.9256273230894
 20
-834.61370197512406
 30
0.0
  0
VERTEX
  5
A2
100
AcDbEntity
  8
寸法
370
              15
390
0
  6
Continuous
 62
               7
100
AcDbVertex
100
AcDb2dVertex
 10
-1739.9256273230894
 20
-834.61370197512406
 30
0.0
  0
VERTEX
  5
A3
100
AcDbEntity
  8
寸法
370
              15
390
0
  6
Continuous
 62
               7
100
AcDbVertex
100
AcDb2dVertex
 10
-1739.9256273230894
 20
-855.08554359516393
 30
0.0
  0
VERTEX
  5
A4
100
AcDbEntity
  8
寸法
370
              15
390
0
  6
Continuous
 62
               7
100
AcDbVertex
100
AcDb2dVertex
 10
-1752.9256273230894
 20
-855.08554359516393
 30
0.0
  0
SEQEND
  5
A5
100
AcDbEntity
  8
寸法
370
              15
390
0
  6
Continuous
 62
               7
  0
LINE
  5
A7
100
AcDbEntity
  8
一般
370
              18
390
0
  6
Continuous
 62
               7
100
AcDbLine
 10
-1683.8833964080382
 20
-679.64452536443287
 30
0.0
 11
-1709.8833964080382
 21
-679.64452536443287
 31
0.0
  0
LINE
  5
A8
100
AcDbEntity
  8
一般
370
              18
390
0
  6
Continuous
 62
               7
100
AcDbLine
 10
-1709.8833964080382
 20
-759.64452536443287
 30
0.0
 11
-1732.8833964080382
 21
-759.64452536443287
 31
0.0
  0
POLYLINE
  5
A9
100
AcDbEntity
  8
一般
370
               5
390
0
  6
Continuous
 62
               7
100
AcDb2dPolyline
 66
               1
 10
0.0
 20
0.0
 30
0.0
 70
               1
 75
               5
  0
VERTEX
  5
AA
100
AcDbEntity
  8
一般
370
               5
390
0
  6
Continuous
 62
               7
100
AcDbVertex
100
AcDb2dVertex
 10
-1629.69847797285
 20
1186.3712003316552
 30
0.0
  0
VERTEX
  5
AB
100
AcDbEntity
  8
一般
370
               5
390
0
  6
Continuous
 62
               7
100
AcDbVertex
100
AcDb2dVertex
 10
-1627.69847797285
 20
1186.3712003316552
 30
0.0
  0
VERTEX
  5
AC
100
AcDbEntity
  8
一般
370
               5
390
0
  6
Continuous
 62
               7
100
AcDbVertex
100
AcDb2dVertex
 10
-1627.69847797285
 20
-583.62879966834475
 30
0.0
  0
VERTEX
  5
AD
100
AcDbEntity
  8
一般
370
               5
390
0
  6
Continuous
 62
               7
100
AcDbVertex
100
AcDb2dVertex
 10
-1629.69847797285
 20
-583.62879966834475
 30
0.0
  0
SEQEND
  5
AE
100
AcDbEntity
  8
一般
370
               5
390
0
  6
Continuous
 62
               7
  0
POLYLINE
  5
B0
100
AcDbEntity
  8
一般
370
              18
390
0
  6
Continuous
 62
               7
100
AcDb2dPolyline
 66
               1
 10
0.0
 20
0.0
 30
0.0
 70
               1
 75
               5
  0
VERTEX
  5
B1
100
AcDbEntity
  8
一般
370
              18
390
0
  6
Continuous
 62
               7
100
AcDbVertex
100
AcDb2dVertex
 10
-685.14183837423252
 20
2319.4578154101773
 30
0.0
  0
VERTEX
  5
B2
100
AcDbEntity
  8
一般
370
              18
390
0
  6
Continuous
 62
               7
100
AcDbVertex
100
AcDb2dVertex
 10
-234.14183837423252
 20
2319.4578154101773
 30
0.0
  0
VERTEX
  5
B3
100
AcDbEntity
  8
一般
370
              18
390
0
  6
Continuous
 62
               7
100
AcDbVertex
100
AcDb2dVertex
 10
-234.14183837423252
 20
1764.457815410185
 30
0.0
  0
VERTEX
  5
B4
100
AcDbEntity
  8
一般
370
              18
390
0
  6
Continuous
 62
               7
100
AcDbVertex
100
AcDb2dVertex
 10
-685.14183837423252
 20
1764.457815410185
 30
0.0
  0
SEQEND
  5
B5
100
AcDbEntity
  8
一般
370
              18
390
0
  6
Continuous
 62
               7
  0
POLYLINE
  5
B7
100
AcDbEntity
  8
一般
370
              15
390
0
  6
Continuous
 62
               7
100
AcDb2dPolyline
 66
               1
 10
0.0
 20
0.0
 30
0.0
 70
               1
 75
               5
  0
VERTEX
  5
B8
100
AcDbEntity
  8
一般
370
              15
390
0
  6
Continuous
 62
               7
100
AcDbVertex
100
AcDb2dVertex
 10
-682.0842861913502
 20
1764.4625928205392
 30
0.0
  0
VERTEX
  5
B9
100
AcDbEntity
  8
一般
370
              15
390
0
  6
Continuous
 62
               7
100
AcDbVertex
100
AcDb2dVertex
 10
-237.0842861913502
 20
1764.4625928205392
 30
0.0
  0
VERTEX
  5
BA
100
AcDbEntity
  8
一般
370
              15
390
0
  6
Continuous
 62
               7
100
AcDbVertex
100
AcDb2dVertex
 10
-237.0842861913502
 20
1743.4625928205396
 30
0.0
  0
VERTEX
  5
BB
100
AcDbEntity
  8
一般
370
              15
390
0
  6
Continuous
 62
               7
100
AcDbVertex
100
AcDb2dVertex
 10
-682.0842861913502
 20
1743.4625928205396
 30
0.0
  0
SEQEND
  5
BC
100
AcDbEntity
  8
一般
370
              15
390
0
  6
Continuous
 62
               7
  0
POLYLINE
  5
BE
100
AcDbEntity
  8
一般
370
              15
390
0
  6
Continuous
 62
               7
100
AcDb2dPolyline
 66
               1
 10
0.0
 20
0.0
 30
0.0
 70
               1
 75
               5
  0
VERTEX
  5
BF
100
AcDbEntity
  8
一般
370
              15
390
0
  6
Continuous
 62
               7
100
AcDbVertex
100
AcDb2dVertex
 10
-682.0842861913502
 20
1743.4625928205396
 30
0.0
  0
VERTEX
  5
C0
100
AcDbEntity
  8
一般
370
              15
390
0
  6
Continuous
 62
               7
100
AcDbVertex
100
AcDb2dVertex
 10
-237.0842861913502
 20
1743.4625928205396
 30
0.0
  0
VERTEX
  5
C1
100
AcDbEntity
  8
一般
370
              15
390
0
  6
Continuous
 62
               7
100
AcDbVertex
100
AcDb2dVertex
 10
-237.0842861913502
 20
1713.4625928205401
 30
0.0
  0
VERTEX
  5
C2
100
AcDbEntity
  8
一般
370
              15
390
0
  6
Continuous
 62
               7
100
AcDbVertex
100
AcDb2dVertex
 10
-682.0842861913502
 20
1713.4625928205401
 30
0.0
  0
SEQEND
  5
C3
100
AcDbEntity
  8
一般
370
              15
390
0
  6
Continuous
 62
               7
  0
POLYLINE
  5
C5
100
AcDbEntity
  8
一般
370
              18
390
0
  6
Continuous
 62
               7
100
AcDb2dPolyline
 66
               1
 10
0.0
 20
0.0
 30
0.0
 70
               1
 75
               5
  0
VERTEX
  5
C6
100
AcDbEntity
  8
一般
370
              18
390
0
  6
Continuous
 62
               7
100
AcDbVertex
100
AcDb2dVertex
 10
-685.14183837423252
 20
1266.3554746355671
 30
0.0
  0
VERTEX
  5
C7
100
AcDbEntity
  8
一般
370
              18
390
0
  6
Continuous
 62
               7
100
AcDbVertex
100
AcDb2dVertex
 10
-234.14183837423252
 20
1266.3554746355671
 30
0.0
  0
VERTEX
  5
C8
100
AcDbEntity
  8
一般
370
              18
390
0
  6
Continuous
 62
               7
100
AcDbVertex
100
AcDb2dVertex
 10
-234.14183837423252
 20
-834.64452536443287
 30
0.0
  0
VERTEX
  5
C9
100
AcDbEntity
  8
一般
370
              18
390
0
  6
Continuous
 62
               7
100
AcDbVertex
100
AcDb2dVertex
 10
-685.14183837423252
 20
-834.64452536443287
 30
0.0
  0
SEQEND
  5
CA
100
AcDbEntity
  8
一般
370
              18
390
0
  6
Continuous
 62
               7
  0
LINE
  5
CC
100
AcDbEntity
  8
一般
370
              18
390
0
  6
Continuous
 62
               7
100
AcDbLine
 10
383.29012293115557
 20
-584.66959197526398
 30
0.0
 11
938.29012293115568
 21
-584.66959197526398
 31
0.0
  0
LINE
  5
CD
100
AcDbEntity
  8
一般
370
              18
390
0
  6
Continuous
 62
               7
100
AcDbLine
 10
-685.10285200650196
 20
-759.66959197526398
 30
0.0
 11
-234.10285200650196
 21
-759.66959197526398
 31
0.0
  0
POLYLINE
  5
CE
100
AcDbEntity
  8
寸法
370
              15
390
0
  6
Continuous
 62
               7
100
AcDb2dPolyline
 66
               1
 10
0.0
 20
0.0
 30
0.0
 70
               1
 75
               5
  0
VERTEX
  5
CF
100
AcDbEntity
  8
寸法
370
              15
390
0
  6
Continuous
 62
               7
100
AcDbVertex
100
AcDb2dVertex
 10
-672.12651210998638
 20
-855.08554359516393
 30
0.0
  0
VERTEX
  5
D0
100
AcDbEntity
  8
寸法
370
              15
390
0
  6
Continuous
 62
               7
100
AcDbVertex
100
AcDb2dVertex
 10
-642.12651210998638
 20
-855.08554359516393
 30
0.0
  0
VERTEX
  5
D1
100
AcDbEntity
  8
寸法
370
              15
390
0
  6
Continuous
 62
               7
100
AcDbVertex
100
AcDb2dVertex
 10
-642.12651210998638
 20
-858.58554359516393
 30
0.0
  0
VERTEX
  5
D2
100
AcDbEntity
  8
寸法
370
              15
390
0
  6
Continuous
 62
               7
100
AcDbVertex
100
AcDb2dVertex
 10
-672.12651210998638
 20
-858.58554359516393
 30
0.0
  0
SEQEND
  5
D3
100
AcDbEntity
  8
寸法
370
              15
390
0
  6
Continuous
 62
               7
  0
WIPEOUT
  5
D5
100
AcDbEntity
  8
寸法
370
              15
390
0
  6
Continuous
 62
               7
 92
        0
100
AcDbWipeout
 90
        0
 10
-663.78403335175381
 20
-855.08554359516393
 30
0.0
 11
20.471841620039868
 21
0.0
 31
0.0
 12
0.0
 22
20.471841620039868
 32
0.0
 13
1.0
 23
1.0
340
0
 70
               7
280
               1
281
              50
282
              50
283
               0
360
0
 71
               2
 91
        5
 14
-0.5
 24
-0.5
 14
0.1350185899872491
 24
-0.5
 14
0.1350185899872491
 24
0.5
 14
-0.5
 24
0.5
 14
-0.5
 24
-0.5
  0
POLYLINE
  5
D6
100
AcDbEntity
  8
寸法
370
              15
390
0
  6
Continuous
 62
               7
100
AcDb2dPolyline
 66
               1
 10
0.0
 20
0.0
 30
0.0
 70
               1
 75
               5
  0
VERTEX
  5
D7
100
AcDbEntity
  8
寸法
370
              15
390
0
  6
Continuous
 62
               7
100
AcDbVertex
100
AcDb2dVertex
 10
-663.78403335175381
 20
-834.61370197512406
 30
0.0
  0
VERTEX
  5
D8
100
AcDbEntity
  8
寸法
370
              15
390
0
  6
Continuous
 62
               7
100
AcDbVertex
100
AcDb2dVertex
 10
-650.78403335175381
 20
-834.61370197512406
 30
0.0
  0
VERTEX
  5
D9
100
AcDbEntity
  8
寸法
370
              15
390
0
  6
Continuous
 62
               7
100
AcDbVertex
100
AcDb2dVertex
 10
-650.78403335175381
 20
-855.08554359516393
 30
0.0
  0
VERTEX
  5
DA
100
AcDbEntity
  8
寸法
370
              15
390
0
  6
Continuous
 62
               7
100
AcDbVertex
100
AcDb2dVertex
 10
-663.78403335175381
 20
-855.08554359516393
 30
0.0
  0
SEQEND
  5
DB
100
AcDbEntity
  8
寸法
370
              15
390
0
  6
Continuous
 62
               7
  0
POLYLINE
  5
DD
100
AcDbEntity
  8
寸法
370
              15
390
0
  6
Continuous
 62
               7
100
AcDb2dPolyline
 66
               1
 10
0.0
 20
0.0
 30
0.0
 70
               1
 75
               5
  0
VERTEX
  5
DE
100
AcDbEntity
  8
寸法
370
              15
390
0
  6
Continuous
 62
               7
100
AcDbVertex
100
AcDb2dVertex
 10
-276.29289533768292
 20
-855.08554359516393
 30
0.0
  0
VERTEX
  5
DF
100
AcDbEntity
  8
寸法
370
              15
390
0
  6
Continuous
 62
               7
100
AcDbVertex
100
AcDb2dVertex
 10
-246.29289533768292
 20
-855.08554359516393
 30
0.0
  0
VERTEX
  5
E0
100
AcDbEntity
  8
寸法
370
              15
390
0
  6
Continuous
 62
               7
100
AcDbVertex
100
AcDb2dVertex
 10
-246.29289533768292
 20
-858.58554359516393
 30
0.0
  0
VERTEX
  5
E1
100
AcDbEntity
  8
寸法
370
              15
390
0
  6
Continuous
 62
               7
100
AcDbVertex
100
AcDb2dVertex
 10
-276.29289533768292
 20
-858.58554359516393
 30
0.0
  0
SEQEND
  5
E2
100
AcDbEntity
  8
寸法
370
              15
390
0
  6
Continuous
 62
               7
  0
WIPEOUT
  5
E4
100
AcDbEntity
  8
寸法
370
              15
390
0
  6
Continuous
 62
               7
 92
        0
100
AcDbWipeout
 90
        0
 10
-267.95041657945012
 20
-855.08554359516393
 30
0.0
 11
20.471841620039868
 21
0.0
 31
0.0
 12
0.0
 22
20.471841620039868
 32
0.0
 13
1.0
 23
1.0
340
0
 70
               7
280
               1
281
              50
282
              50
283
               0
360
0
 71
               2
 91
        5
 14
-0.5
 24
-0.5
 14
0.1350185899872491
 24
-0.5
 14
0.1350185899872491
 24
0.5
 14
-0.5
 24
0.5
 14
-0.5
 24
-0.5
  0
POLYLINE
  5
E5
100
AcDbEntity
  8
寸法
370
              15
390
0
  6
Continuous
 62
               7
100
AcDb2dPolyline
 66
               1
 10
0.0
 20
0.0
 30
0.0
 70
               1
 75
               5
  0
VERTEX
  5
E6
100
AcDbEntity
  8
寸法
370
              15
390
0
  6
Continuous
 62
               7
100
AcDbVertex
100
AcDb2dVertex
 10
-267.95041657945012
 20
-834.61370197512406
 30
0.0
  0
VERTEX
  5
E7
100
AcDbEntity
  8
寸法
370
              15
390
0
  6
Continuous
 62
               7
100
AcDbVertex
100
AcDb2dVertex
 10
-254.95041657945012
 20
-834.61370197512406
 30
0.0
  0
VERTEX
  5
E8
100
AcDbEntity
  8
寸法
370
              15
390
0
  6
Continuous
 62
               7
100
AcDbVertex
100
AcDb2dVertex
 10
-254.95041657945012
 20
-855.08554359516393
 30
0.0
  0
VERTEX
  5
E9
100
AcDbEntity
  8
寸法
370
              15
390
0
  6
Continuous
 62
               7
100
AcDbVertex
100
AcDb2dVertex
 10
-267.95041657945012
 20
-855.08554359516393
 30
0.0
  0
SEQEND
  5
EA
100
AcDbEntity
  8
寸法
370
              15
390
0
  6
Continuous
 62
               7
  0
LINE
  5
EC
100
AcDbEntity
  8
一般
370
              18
390
0
  6
Continuous
 62
               7
100
AcDbLine
 10
383.29012293115557
 20
-584.66959197526398
 30
0.0
 11
383.29012293115557
 21
1266.3554746355751
 31
0.0
  0
LINE
  5
ED
100
AcDbEntity
  8
一般
370
              18
390
0
  6
Continuous
 62
               7
100
AcDbLine
 10
383.29012293115557
 20
1266.3554746355751
 30
0.0
 11
938.29012293115568
 21
1266.3554746355751
 31
0.0
  0
POLYLINE
  5
EE
100
AcDbEntity
  8
寸法
370
              15
390
0
  6
STYLE_05
 62
               7
100
AcDb2dPolyline
 66
               1
 10
0.0
 20
0.0
 30
0.0
 70
               1
 75
               5
  0
VERTEX
  5
EF
100
AcDbEntity
  8
寸法
370
              15
390
0
  6
STYLE_05
 62
               7
100
AcDbVertex
100
AcDb2dVertex
 10
898.30513354401785
 20
1254.2212003316627
 30
0.0
  0
VERTEX
  5
F0
100
AcDbEntity
  8
寸法
370
              15
390
0
  6
STYLE_05
 62
               7
100
AcDbVertex
100
AcDb2dVertex
 10
938.50537612989933
 20
1254.2212003316627
 30
0.0
  0
VERTEX
  5
F1
100
AcDbEntity
  8
寸法
370
              15
390
0
  6
STYLE_05
 62
               7
100
AcDbVertex
100
AcDb2dVertex
 10
938.50537612989933
 20
1207.0550528903486
 30
0.0
  0
VERTEX
  5
F2
100
AcDbEntity
  8
寸法
370
              15
390
0
  6
STYLE_05
 62
               7
100
AcDbVertex
100
AcDb2dVertex
 10
898.30513354401785
 20
1207.0550528903486
 30
0.0
  0
SEQEND
  5
F3
100
AcDbEntity
  8
寸法
370
              15
390
0
  6
STYLE_05
 62
               7
  0
LINE
  5
F5
100
AcDbEntity
  8
一般
370
              18
390
0
  6
Continuous
 62
               7
100
AcDbLine
 10
938.29012293115568
 20
-584.66959197526398
 30
0.0
 11
938.29012293115568
 21
1266.3554746355751
 31
0.0
  0
POLYLINE
  5
F6
100
AcDbEntity
  8
一般
370
              15
390
0
  6
Continuous
 62
               7
100
AcDb2dPolyline
 66
               1
 10
0.0
 20
0.0
 30
0.0
 70
               1
 75
               5
  0
VERTEX
  5
F7
100
AcDbEntity
  8
一般
370
              15
390
0
  6
Continuous
 62
               7
100
AcDbVertex
100
AcDb2dVertex
 10
938.28588903234856
 20
1186.3712003316552
 30
0.0
  0
VERTEX
  5
F8
100
AcDbEntity
  8
一般
370
              15
390
0
  6
Continuous
 62
               7
100
AcDbVertex
100
AcDb2dVertex
 10
959.28588903234868
 20
1186.3712003316552
 30
0.0
  0
VERTEX
  5
F9
100
AcDbEntity
  8
一般
370
              15
390
0
  6
Continuous
 62
               7
100
AcDbVertex
100
AcDb2dVertex
 10
959.28588903234868
 20
-560.62879966834475
 30
0.0
  0
VERTEX
  5
FA
100
AcDbEntity
  8
一般
370
              15
390
0
  6
Continuous
 62
               7
100
AcDbVertex
100
AcDb2dVertex
 10
938.28588903234856
 20
-560.62879966834475
 30
0.0
  0
SEQEND
  5
FB
100
AcDbEntity
  8
一般
370
              15
390
0
  6
Continuous
 62
               7
  0
POLYLINE
  5
FD
100
AcDbEntity
  8
一般
370
              15
390
0
  6
Continuous
 62
               7
100
AcDb2dPolyline
 66
               1
 10
0.0
 20
0.0
 30
0.0
 70
               1
 75
               5
  0
VERTEX
  5
FE
100
AcDbEntity
  8
一般
370
              15
390
0
  6
Continuous
 62
               7
100
AcDbVertex
100
AcDb2dVertex
 10
959.28588903234856
 20
1186.3712003316552
 30
0.0
  0
VERTEX
  5
FF
100
AcDbEntity
  8
一般
370
              15
390
0
  6
Continuous
 62
               7
100
AcDbVertex
100
AcDb2dVertex
 10
989.28588903234879
 20
1186.3712003316552
 30
0.0
  0
VERTEX
  5
100
100
AcDbEntity
  8
一般
370
              15
390
0
  6
Continuous
 62
               7
100
AcDbVertex
100
AcDb2dVertex
 10
989.28588903234879
 20
-583.62879966834475
 30
0.0
  0
VERTEX
  5
101
100
AcDbEntity
  8
一般
370
              15
390
0
  6
Continuous
 62
               7
100
AcDbVertex
100
AcDb2dVertex
 10
959.28588903234856
 20
-583.62879966834475
 30
0.0
  0
SEQEND
  5
102
100
AcDbEntity
  8
一般
370
              15
390
0
  6
Continuous
 62
               7
  0
POLYLINE
  5
104
100
AcDbEntity
  8
一般
370
               5
390
0
  6
Continuous
 62
               7
100
AcDb2dPolyline
 66
               1
 10
0.0
 20
0.0
 30
0.0
 70
               1
 75
               5
  0
VERTEX
  5
105
100
AcDbEntity
  8
一般
370
               5
390
0
  6
Continuous
 62
               7
100
AcDbVertex
100
AcDb2dVertex
 10
989.22722603902855
 20
1186.3712003316552
 30
0.0
  0
VERTEX
  5
106
100
AcDbEntity
  8
一般
370
               5
390
0
  6
Continuous
 62
               7
100
AcDbVertex
100
AcDb2dVertex
 10
991.22722603902855
 20
1186.3712003316552
 30
0.0
  0
VERTEX
  5
107
100
AcDbEntity
  8
一般
370
               5
390
0
  6
Continuous
 62
               7
100
AcDbVertex
100
AcDb2dVertex
 10
991.22722603902855
 20
-583.62879966834475
 30
0.0
  0
VERTEX
  5
108
100
AcDbEntity
  8
一般
370
               5
390
0
  6
Continuous
 62
               7
100
AcDbVertex
100
AcDb2dVertex
 10
989.22722603902855
 20
-583.62879966834475
 30
0.0
  0
SEQEND
  5
109
100
AcDbEntity
  8
一般
370
               5
390
0
  6
Continuous
 62
               7
  0
WIPEOUT
  5
10B
100
AcDbEntity
  8
一般
370
              15
390
0
  6
Continuous
 62
               7
 92
        0
100
AcDbWipeout
 90
        0
 10
991.39834648012379
 20
-755.82646560885996
 30
0.0
 11
2029.0
 21
0.0
 31
0.0
 12
0.0
 22
2029.0
 32
0.0
 13
1.0
 23
1.0
340
0
 70
               7
280
               1
281
              50
282
              50
283
               0
360
0
 71
               2
 91
        5
 14
-0.5
 24
-0.5
 14
-0.4906357811729916
 24
-0.5
 14
-0.4906357811729916
 24
0.5
 14
-0.5
 24
0.5
 14
-0.5
 24
-0.5
  0
POLYLINE
  5
10C
100
AcDbEntity
  8
一般
370
              15
390
0
  6
Continuous
 62
               7
100
AcDb2dPolyline
 66
               1
 10
0.0
 20
0.0
 30
0.0
 70
               1
 75
               5
  0
VERTEX
  5
10D
100
AcDbEntity
  8
一般
370
              15
390
0
  6
Continuous
 62
               7
100
AcDbVertex
100
AcDb2dVertex
 10
991.39834648012379
 20
1273.17353439114
 30
0.0
  0
VERTEX
  5
10E
100
AcDbEntity
  8
一般
370
              15
390
0
  6
Continuous
 62
               7
100
AcDbVertex
100
AcDb2dVertex
 10
1010.3983464801238
 20
1273.17353439114
 30
0.0
  0
VERTEX
  5
10F
100
AcDbEntity
  8
一般
370
              15
390
0
  6
Continuous
 62
               7
100
AcDbVertex
100
AcDb2dVertex
 10
1010.3983464801238
 20
-755.82646560885996
 30
0.0
  0
VERTEX
  5
110
100
AcDbEntity
  8
一般
370
              15
390
0
  6
Continuous
 62
               7
100
AcDbVertex
100
AcDb2dVertex
 10
991.39834648012379
 20
-755.82646560885996
 30
0.0
  0
SEQEND
  5
111
100
AcDbEntity
  8
一般
370
              15
390
0
  6
Continuous
 62
               7
  0
WIPEOUT
  5
113
100
AcDbEntity
  8
寸法
370
              15
390
0
  6
Continuous
 62
               7
 92
        0
100
AcDbWipeout
 90
        0
 10
938.50537612989945
 20
1207.2212003316627
 30
0.0
 11
50.836575494950694
 21
0.0
 31
0.0
 12
0.0
 22
50.836575494950694
 32
0.0
 13
1.0
 23
1.0
340
0
 70
               7
280
               1
281
              50
282
              50
283
               0
360
0
 71
               2
 91
        5
 14
-0.5
 24
-0.4245311971233875
 14
0.5
 24
-0.4245311971233875
 14
0.5
 24
0.5
 14
-0.5
 24
0.5
 14
-0.5
 24
-0.4245311971233875
  0
POLYLINE
  5
114
100
AcDbEntity
  8
寸法
370
              15
390
0
  6
Continuous
 62
               7
100
AcDb2dPolyline
 66
               1
 10
0.0
 20
0.0
 30
0.0
 70
               1
 75
               5
  0
VERTEX
  5
115
100
AcDbEntity
  8
寸法
370
              15
390
0
  6
Continuous
 62
               7
100
AcDbVertex
100
AcDb2dVertex
 10
938.50537612989945
 20
1254.2212003316629
 30
0.0
  0
VERTEX
  5
116
100
AcDbEntity
  8
寸法
370
              15
390
0
  6
Continuous
 62
               7
100
AcDbVertex
100
AcDb2dVertex
 10
989.34195162485014
 20
1254.2212003316629
 30
0.0
  0
VERTEX
  5
117
100
AcDbEntity
  8
寸法
370
              15
390
0
  6
Continuous
 62
               7
100
AcDbVertex
100
AcDb2dVertex
 10
989.34195162485014
 20
1207.2212003316627
 30
0.0
  0
VERTEX
  5
118
100
AcDbEntity
  8
寸法
370
              15
390
0
  6
Continuous
 62
               7
100
AcDbVertex
100
AcDb2dVertex
 10
938.50537612989945
 20
1207.2212003316627
 30
0.0
  0
SEQEND
  5
119
100
AcDbEntity
  8
寸法
370
              15
390
0
  6
Continuous
 62
               7
  0
WIPEOUT
  5
11B
100
AcDbEntity
  8
寸法
370
              15
390
0
  6
Continuous
 62
               7
 92
        0
100
AcDbWipeout
 90
        0
 10
969.24211883513362
 20
1186.3255561501892
 30
0.0
 11
54.999999999999091
 21
0.0
 31
0.0
 12
0.0
 22
54.999999999999091
 32
0.0
 13
1.0
 23
1.0
340
0
 70
               7
280
               1
281
              50
282
              50
283
               0
360
0
 71
               2
 91
        5
 14
-0.5
 24
-0.5
 14
-0.1363636363636304
 24
-0.5
 14
-0.1363636363636304
 24
0.5
 14
-0.5
 24
0.5
 14
-0.5
 24
-0.5
  0
POLYLINE
  5
11C
100
AcDbEntity
  8
寸法
370
              15
390
0
  6
Continuous
 62
               7
100
AcDb2dPolyline
 66
               1
 10
0.0
 20
0.0
 30
0.0
 70
               1
 75
               5
  0
VERTEX
  5
11D
100
AcDbEntity
  8
寸法
370
              15
390
0
  6
Continuous
 62
               7
100
AcDbVertex
100
AcDb2dVertex
 10
969.24211883513362
 20
1241.3255561501883
 30
0.0
  0
VERTEX
  5
11E
100
AcDbEntity
  8
寸法
370
              15
390
0
  6
Continuous
 62
               7
100
AcDbVertex
100
AcDb2dVertex
 10
989.24211883513362
 20
1241.3255561501883
 30
0.0
  0
VERTEX
  5
11F
100
AcDbEntity
  8
寸法
370
              15
390
0
  6
Continuous
 62
               7
100
AcDbVertex
100
AcDb2dVertex
 10
989.24211883513362
 20
1186.3255561501892
 30
0.0
  0
VERTEX
  5
120
100
AcDbEntity
  8
寸法
370
              15
390
0
  6
Continuous
 62
               7
100
AcDbVertex
100
AcDb2dVertex
 10
969.24211883513362
 20
1186.3255561501892
 30
0.0
  0
SEQEND
  5
121
100
AcDbEntity
  8
寸法
370
              15
390
0
  6
Continuous
 62
               7
  0
WIPEOUT
  5
123
100
AcDbEntity
  8
寸法
370
              15
390
0
  6
Continuous
 62
               7
 92
        0
100
AcDbWipeout
 90
        0
 10
-1680.6999914094822
 20
1207.2212003316627
 30
0.0
 11
50.836575494949557
 21
0.0
 31
0.0
 12
0.0
 22
50.836575494949557
 32
0.0
 13
1.0
 23
1.0
340
0
 70
               7
280
               1
281
              50
282
              50
283
               0
360
0
 71
               2
 91
        5
 14
-0.5
 24
-0.4245311971234081
 14
0.5
 24
-0.4245311971234081
 14
0.5
 24
0.5
 14
-0.5
 24
0.5
 14
-0.5
 24
-0.4245311971234081
  0
POLYLINE
  5
124
100
AcDbEntity
  8
寸法
370
              15
390
0
  6
Continuous
 62
               7
100
AcDb2dPolyline
 66
               1
 10
0.0
 20
0.0
 30
0.0
 70
               1
 75
               5
  0
VERTEX
  5
125
100
AcDbEntity
  8
寸法
370
              15
390
0
  6
Continuous
 62
               7
100
AcDbVertex
100
AcDb2dVertex
 10
-1680.6999914094822
 20
1254.2212003316629
 30
0.0
  0
VERTEX
  5
126
100
AcDbEntity
  8
寸法
370
              15
390
0
  6
Continuous
 62
               7
100
AcDbVertex
100
AcDb2dVertex
 10
-1629.8634159145327
 20
1254.2212003316629
 30
0.0
  0
VERTEX
  5
127
100
AcDbEntity
  8
寸法
370
              15
390
0
  6
Continuous
 62
               7
100
AcDbVertex
100
AcDb2dVertex
 10
-1629.8634159145327
 20
1207.2212003316627
 30
0.0
  0
VERTEX
  5
128
100
AcDbEntity
  8
寸法
370
              15
390
0
  6
Continuous
 62
               7
100
AcDbVertex
100
AcDb2dVertex
 10
-1680.6999914094822
 20
1207.2212003316627
 30
0.0
  0
SEQEND
  5
129
100
AcDbEntity
  8
寸法
370
              15
390
0
  6
Continuous
 62
               7
  0
POLYLINE
  5
12B
100
AcDbEntity
  8
寸法
370
              15
390
0
  6
STYLE_05
 62
               7
100
AcDb2dPolyline
 66
               1
 10
0.0
 20
0.0
 30
0.0
 70
               1
 75
               5
  0
VERTEX
  5
12C
100
AcDbEntity
  8
寸法
370
              15
390
0
  6
STYLE_05
 62
               7
100
AcDbVertex
100
AcDb2dVertex
 10
-1720.9002339953622
 20
1254.2212003316627
 30
0.0
  0
VERTEX
  5
12D
100
AcDbEntity
  8
寸法
370
              15
390
0
  6
STYLE_05
 62
               7
100
AcDbVertex
100
AcDb2dVertex
 10
-1680.6999914094818
 20
1254.2212003316627
 30
0.0
  0
VERTEX
  5
12E
100
AcDbEntity
  8
寸法
370
              15
390
0
  6
STYLE_05
 62
               7
100
AcDbVertex
100
AcDb2dVertex
 10
-1680.6999914094818
 20
1207.0550528903486
 30
0.0
  0
VERTEX
  5
12F
100
AcDbEntity
  8
寸法
370
              15
390
0
  6
STYLE_05
 62
               7
100
AcDbVertex
100
AcDb2dVertex
 10
-1720.9002339953622
 20
1207.0550528903486
 30
0.0
  0
SEQEND
  5
130
100
AcDbEntity
  8
寸法
370
              15
390
0
  6
STYLE_05
 62
               7
  0
WIPEOUT
  5
132
100
AcDbEntity
  8
寸法
370
              15
390
0
  6
Continuous
 62
               7
 92
        0
100
AcDbWipeout
 90
        0
 10
-1649.8397833632289
 20
1186.3255561501892
 30
0.0
 11
54.999999999999091
 21
0.0
 31
0.0
 12
0.0
 22
54.999999999999091
 32
0.0
 13
1.0
 23
1.0
340
0
 70
               7
280
               1
281
              50
282
              50
283
               0
360
0
 71
               2
 91
        5
 14
-0.5
 24
-0.5
 14
-0.1363636363636304
 24
-0.5
 14
-0.1363636363636304
 24
0.5
 14
-0.5
 24
0.5
 14
-0.5
 24
-0.5
  0
POLYLINE
  5
133
100
AcDbEntity
  8
寸法
370
              15
390
0
  6
Continuous
 62
               7
100
AcDb2dPolyline
 66
               1
 10
0.0
 20
0.0
 30
0.0
 70
               1
 75
               5
  0
VERTEX
  5
134
100
AcDbEntity
  8
寸法
370
              15
390
0
  6
Continuous
 62
               7
100
AcDbVertex
100
AcDb2dVertex
 10
-1649.8397833632289
 20
1241.3255561501883
 30
0.0
  0
VERTEX
  5
135
100
AcDbEntity
  8
寸法
370
              15
390
0
  6
Continuous
 62
               7
100
AcDbVertex
100
AcDb2dVertex
 10
-1629.8397833632289
 20
1241.3255561501883
 30
0.0
  0
VERTEX
  5
136
100
AcDbEntity
  8
寸法
370
              15
390
0
  6
Continuous
 62
               7
100
AcDbVertex
100
AcDb2dVertex
 10
-1629.8397833632289
 20
1186.3255561501892
 30
0.0
  0
VERTEX
  5
137
100
AcDbEntity
  8
寸法
370
              15
390
0
  6
Continuous
 62
               7
100
AcDbVertex
100
AcDb2dVertex
 10
-1649.8397833632289
 20
1186.3255561501892
 30
0.0
  0
SEQEND
  5
138
100
AcDbEntity
  8
寸法
370
              15
390
0
  6
Continuous
 62
               7
  0
CIRCLE
  5
13A
102
{ACAD_REACTORS
330
13B
102
}
100
AcDbEntity
  8
0
370
               5
390
0
  6
Continuous
 62
               7
100
AcDbCircle
 10
-2140.4999914094819
 20
-843.59914432669484
 30
0.0
 40
14.999999999999805
  0
HATCH
  5
13B
100
AcDbEntity
  8
0
370
               0
390
0
  6
Continuous
 62
               7
100
AcDbHatch
 10
0.0
 20
0.0
 30
0.0
210
0.0
220
0.0
230
1.0
  2
SOLID
 70
               1
 71
               1
 91
        1
 92
        1
 93
        1
 72
               2
 10
-2140.4999914094819
 20
-843.59914432669484
 40
14.999999999999805
 50
0.0
 51
360.0
 73
               0
 97
        1
330
13A
 75
               0
 76
               1
 98
        1
 10
0.0
 20
0.0
  0
WIPEOUT
  5
13C
100
AcDbEntity
  8
0
370
               5
390
0
  6
Continuous
 62
               7
 92
        0
100
AcDbWipeout
 90
        0
 10
-2157.9999914094819
 20
-834.46782867750289
 30
0.0
 11
34.5
 21
0.0
 31
0.0
 12
0.0
 22
34.5
 32
0.0
 13
1.0
 23
1.0
340
0
 70
               7
280
               1
281
              50
282
              50
283
               0
360
0
 71
               2
 91
        5
 14
-0.5
 24
0.0507246376811594
 14
0.5
 24
0.0507246376811594
 14
0.5
 24
0.5
 14
-0.5
 24
0.5
 14
-0.5
 24
0.0507246376811594
  0
LINE
  5
13D
100
AcDbEntity
  8
一般
370
              18
390
0
  6
Continuous
 62
               7
100
AcDbLine
 10
935.06927216071506
 20
-584.69149289467941
 30
0.0
 11
935.06927216071506
 21
-679.69149289467941
 31
0.0
  0
LINE
  5
13E
100
AcDbEntity
  8
一般
370
              18
390
0
  6
Continuous
 62
               7
100
AcDbLine
 10
909.01026846717286
 20
-679.74830756541564
 30
0.0
 11
909.01026846717286
 21
-759.74830756541564
 31
0.0
  0
LINE
  5
13F
100
AcDbEntity
  8
一般
370
              18
390
0
  6
Continuous
 62
               7
100
AcDbLine
 10
885.88407754587593
 20
-759.83354273502709
 30
0.0
 11
885.88407754587593
 21
-834.83354273502709
 31
0.0
  0
LINE
  5
140
100
AcDbEntity
  8
一般
370
              18
390
0
  6
Continuous
 62
               7
100
AcDbLine
 10
885.88407754587593
 20
-834.64452536443287
 30
0.0
 11
413.34220676689051
 21
-834.64452536443287
 31
0.0
  0
LINE
  5
141
100
AcDbEntity
  8
一般
370
              18
390
0
  6
Continuous
 62
               7
100
AcDbLine
 10
413.34220676689051
 20
-834.44367028723946
 30
0.0
 11
413.34220676689006
 21
-584.66959197526398
 31
0.0
  0
POLYLINE
  5
142
100
AcDbEntity
  8
寸法
370
              15
390
0
  6
Continuous
 62
               7
100
AcDb2dPolyline
 66
               1
 10
0.0
 20
0.0
 30
0.0
 70
               1
 75
               5
  0
VERTEX
  5
143
100
AcDbEntity
  8
寸法
370
              15
390
0
  6
Continuous
 62
               7
100
AcDbVertex
100
AcDb2dVertex
 10
857.49936787259151
 20
-855.08554359516393
 30
0.0
  0
VERTEX
  5
144
100
AcDbEntity
  8
寸法
370
              15
390
0
  6
Continuous
 62
               7
100
AcDbVertex
100
AcDb2dVertex
 10
887.49936787259162
 20
-855.08554359516393
 30
0.0
  0
VERTEX
  5
145
100
AcDbEntity
  8
寸法
370
              15
390
0
  6
Continuous
 62
               7
100
AcDbVertex
100
AcDb2dVertex
 10
887.49936787259162
 20
-858.58554359516393
 30
0.0
  0
VERTEX
  5
146
100
AcDbEntity
  8
寸法
370
              15
390
0
  6
Continuous
 62
               7
100
AcDbVertex
100
AcDb2dVertex
 10
857.49936787259151
 20
-858.58554359516393
 30
0.0
  0
SEQEND
  5
147
100
AcDbEntity
  8
寸法
370
              15
390
0
  6
Continuous
 62
               7
  0
WIPEOUT
  5
149
100
AcDbEntity
  8
寸法
370
              15
390
0
  6
Continuous
 62
               7
 92
        0
100
AcDbWipeout
 90
        0
 10
865.84184663082419
 20
-855.08554359516393
 30
0.0
 11
20.471841620039868
 21
0.0
 31
0.0
 12
0.0
 22
20.471841620039868
 32
0.0
 13
1.0
 23
1.0
340
0
 70
               7
280
               1
281
              50
282
              50
283
               0
360
0
 71
               2
 91
        5
 14
-0.5
 24
-0.5
 14
0.1350185899872491
 24
-0.5
 14
0.1350185899872491
 24
0.5
 14
-0.5
 24
0.5
 14
-0.5
 24
-0.5
  0
POLYLINE
  5
14A
100
AcDbEntity
  8
寸法
370
              15
390
0
  6
Continuous
 62
               7
100
AcDb2dPolyline
 66
               1
 10
0.0
 20
0.0
 30
0.0
 70
               1
 75
               5
  0
VERTEX
  5
14B
100
AcDbEntity
  8
寸法
370
              15
390
0
  6
Continuous
 62
               7
100
AcDbVertex
100
AcDb2dVertex
 10
865.84184663082419
 20
-834.61370197512406
 30
0.0
  0
VERTEX
  5
14C
100
AcDbEntity
  8
寸法
370
              15
390
0
  6
Continuous
 62
               7
100
AcDbVertex
100
AcDb2dVertex
 10
878.84184663082419
 20
-834.61370197512406
 30
0.0
  0
VERTEX
  5
14D
100
AcDbEntity
  8
寸法
370
              15
390
0
  6
Continuous
 62
               7
100
AcDbVertex
100
AcDb2dVertex
 10
878.84184663082419
 20
-855.08554359516393
 30
0.0
  0
VERTEX
  5
14E
100
AcDbEntity
  8
寸法
370
              15
390
0
  6
Continuous
 62
               7
100
AcDbVertex
100
AcDb2dVertex
 10
865.84184663082419
 20
-855.08554359516393
 30
0.0
  0
SEQEND
  5
14F
100
AcDbEntity
  8
寸法
370
              15
390
0
  6
Continuous
 62
               7
  0
LINE
  5
151
100
AcDbEntity
  8
一般
370
              18
390
0
  6
Continuous
 62
               7
100
AcDbLine
 10
934.88407754587706
 20
-679.64452536443287
 30
0.0
 11
908.88407754587649
 21
-679.64452536443287
 31
0.0
  0
LINE
  5
152
100
AcDbEntity
  8
一般
370
              18
390
0
  6
Continuous
 62
               7
100
AcDbLine
 10
908.88407754587649
 20
-759.64452536443287
 30
0.0
 11
885.88407754587593
 21
-759.64452536443287
 31
0.0
  0
CIRCLE
  5
153
102
{ACAD_REACTORS
330
154
102
}
100
AcDbEntity
  8
0
370
               5
390
0
  6
Continuous
 62
               7
100
AcDbCircle
 10
478.2674825444318
 20
-843.59914432669484
 30
0.0
 40
14.999999999999707
  0
HATCH
  5
154
100
AcDbEntity
  8
0
370
               0
390
0
  6
Continuous
 62
               7
100
AcDbHatch
 10
0.0
 20
0.0
 30
0.0
210
0.0
220
0.0
230
1.0
  2
SOLID
 70
               1
 71
               1
 91
        1
 92
        1
 93
        1
 72
               2
 10
478.2674825444318
 20
-843.59914432669484
 40
14.999999999999707
 50
0.0
 51
360.0
 73
               0
 97
        1
330
153
 75
               0
 76
               1
 98
        1
 10
0.0
 20
0.0
  0
WIPEOUT
  5
155
100
AcDbEntity
  8
0
370
               5
390
0
  6
Continuous
 62
               7
 92
        0
100
AcDbWipeout
 90
        0
 10
460.76748254443237
 20
-834.46782867750289
 30
0.0
 11
34.500000000000114
 21
0.0
 31
0.0
 12
0.0
 22
34.500000000000114
 32
0.0
 13
1.0
 23
1.0
340
0
 70
               7
280
               1
281
              50
282
              50
283
               0
360
0
 71
               2
 91
        5
 14
-0.5
 24
0.0507246376811609
 14
0.5
 24
0.0507246376811609
 14
0.5
 24
0.5
 14
-0.5
 24
0.5
 14
-0.5
 24
0.0507246376811609
  0
POLYLINE
  5
156
100
AcDbEntity
  8
0
370
              15
390
0
  6
Continuous
 62
               7
100
AcDb2dPolyline
 66
               1
 10
0.0
 20
0.0
 30
0.0
 70
               1
 75
               5
  0
VERTEX
  5
157
100
AcDbEntity
  8
0
370
              15
390
0
  6
Continuous
 62
               7
100
AcDbVertex
100
AcDb2dVertex
 10
-608.15677615306595
 20
1123.0995636071841
 30
0.0
  0
VERTEX
  5
158
100
AcDbEntity
  8
0
370
              15
390
0
  6
Continuous
 62
               7
100
AcDbVertex
100
AcDb2dVertex
 10
-241.49999140948171
 20
1123.0995636071841
 30
0.0
  0
VERTEX
  5
159
100
AcDbEntity
  8
0
370
              15
390
0
  6
Continuous
 62
               7
100
AcDbVertex
100
AcDb2dVertex
 10
-241.49999140948171
 20
-485.76010279833008
 30
0.0
  0
VERTEX
  5
15A
100
AcDbEntity
  8
0
370
              15
390
0
  6
Continuous
 62
               7
100
AcDbVertex
100
AcDb2dVertex
 10
-608.15677615306595
 20
-485.76010279833008
 30
0.0
  0
SEQEND
  5
15B
100
AcDbEntity
  8
0
370
              15
390
0
  6
Continuous
 62
               7
  0
WIPEOUT
  5
15D
100
AcDbEntity
  8
一般
370
              18
390
0
  6
Continuous
 62
               7
 92
        0
100
AcDbWipeout
 90
        0
 10
-685.15281432587381
 20
-755.82646560885996
 30
0.0
 11
2029.0
 21
0.0
 31
0.0
 12
0.0
 22
2029.0
 32
0.0
 13
1.0
 23
1.0
340
0
 70
               7
280
               1
281
              50
282
              50
283
               0
360
0
 71
               2
 91
        5
 14
-0.5
 24
-0.5
 14
-0.2777230162641695
 24
-0.5
 14
-0.2777230162641695
 24
0.5
 14
-0.5
 24
0.5
 14
-0.5
 24
-0.5
  0
POLYLINE
  5
15E
100
AcDbEntity
  8
一般
370
              18
390
0
  6
Continuous
 62
               7
100
AcDb2dPolyline
 66
               1
 10
0.0
 20
0.0
 30
0.0
 70
               1
 75
               5
  0
VERTEX
  5
15F
100
AcDbEntity
  8
一般
370
              18
390
0
  6
Continuous
 62
               7
100
AcDbVertex
100
AcDb2dVertex
 10
-685.15281432587381
 20
1273.17353439114
 30
0.0
  0
VERTEX
  5
160
100
AcDbEntity
  8
一般
370
              18
390
0
  6
Continuous
 62
               7
100
AcDbVertex
100
AcDb2dVertex
 10
-234.15281432587381
 20
1273.17353439114
 30
0.0
  0
VERTEX
  5
161
100
AcDbEntity
  8
一般
370
              18
390
0
  6
Continuous
 62
               7
100
AcDbVertex
100
AcDb2dVertex
 10
-234.15281432587381
 20
-755.82646560885996
 30
0.0
  0
VERTEX
  5
162
100
AcDbEntity
  8
一般
370
              18
390
0
  6
Continuous
 62
               7
100
AcDbVertex
100
AcDb2dVertex
 10
-685.15281432587381
 20
-755.82646560885996
 30
0.0
  0
SEQEND
  5
163
100
AcDbEntity
  8
一般
370
              18
390
0
  6
Continuous
 62
               7
  0
POLYLINE
  5
165
100
AcDbEntity
  8
一般
370
              18
390
0
  6
Continuous
 62
               7
100
AcDb2dPolyline
 66
               1
 10
0.0
 20
0.0
 30
0.0
 70
               1
 75
               5
  0
VERTEX
  5
166
100
AcDbEntity
  8
一般
370
              18
390
0
  6
Continuous
 62
               7
100
AcDbVertex
100
AcDb2dVertex
 10
-610.15281432587381
 20
1124.17353439114
 30
0.0
  0
VERTEX
  5
167
100
AcDbEntity
  8
一般
370
              18
390
0
  6
Continuous
 62
               7
100
AcDbVertex
100
AcDb2dVertex
 10
-309.29999140947393
 20
1124.17353439114
 30
0.0
  0
VERTEX
  5
168
100
AcDbEntity
  8
一般
370
              18
390
0
  6
Continuous
 62
               7
100
AcDbVertex
100
AcDb2dVertex
 10
-309.29999140947393
 20
-498.82646560885996
 30
0.0
  0
VERTEX
  5
169
100
AcDbEntity
  8
一般
370
              18
390
0
  6
Continuous
 62
               7
100
AcDbVertex
100
AcDb2dVertex
 10
-610.15281432587381
 20
-498.82646560885996
 30
0.0
  0
SEQEND
  5
16A
100
AcDbEntity
  8
一般
370
              18
390
0
  6
Continuous
 62
               7
  0
POLYLINE
  5
16C
100
AcDbEntity
  8
一般
370
              18
390
0
  6
Continuous
 62
               7
100
AcDb2dPolyline
 66
               1
 10
0.0
 20
0.0
 30
0.0
 70
               1
 75
               5
  0
VERTEX
  5
16D
100
AcDbEntity
  8
一般
370
              18
390
0
  6
Continuous
 62
               7
100
AcDbVertex
100
AcDb2dVertex
 10
-3163.2817956814524
 20
1134.17353439114
 30
0.0
  0
VERTEX
  5
16E
100
AcDbEntity
  8
一般
370
              18
390
0
  6
Continuous
 62
               7
100
AcDbVertex
100
AcDb2dVertex
 10
-2842.2817956814524
 20
1134.17353439114
 30
0.0
  0
VERTEX
  5
16F
100
AcDbEntity
  8
一般
370
              18
390
0
  6
Continuous
 62
               7
100
AcDbVertex
100
AcDb2dVertex
 10
-2842.2817956814524
 20
-508.82646560885996
 30
0.0
  0
VERTEX
  5
170
100
AcDbEntity
  8
一般
370
              18
390
0
  6
Continuous
 62
               7
100
AcDbVertex
100
AcDb2dVertex
 10
-3163.2817956814524
 20
-508.82646560885996
 30
0.0
  0
SEQEND
  5
171
100
AcDbEntity
  8
一般
370
              18
390
0
  6
Continuous
 62
               7
  0
POLYLINE
  5
173
100
AcDbEntity
  8
一般
370
              15
390
0
  6
Continuous
 62
               7
100
AcDb2dPolyline
 66
               1
 10
0.0
 20
0.0
 30
0.0
 70
               1
 75
               5
  0
VERTEX
  5
174
100
AcDbEntity
  8
一般
370
              15
390
0
  6
Continuous
 62
               7
100
AcDbVertex
100
AcDb2dVertex
 10
-685.36934639343144
 20
1711.5505794288911
 30
0.0
  0
VERTEX
  5
175
100
AcDbEntity
  8
一般
370
              15
390
0
  6
Continuous
 62
               7
100
AcDbVertex
100
AcDb2dVertex
 10
-234.36934639343144
 20
1711.5505794288911
 30
0.0
  0
VERTEX
  5
176
100
AcDbEntity
  8
一般
370
              15
390
0
  6
Continuous
 62
               7
100
AcDbVertex
100
AcDb2dVertex
 10
-234.36934639343144
 20
1692.5505794288911
 30
0.0
  0
VERTEX
  5
177
100
AcDbEntity
  8
一般
370
              15
390
0
  6
Continuous
 62
               7
100
AcDbVertex
100
AcDb2dVertex
 10
-685.36934639343144
 20
1692.5505794288911
 30
0.0
  0
SEQEND
  5
178
100
AcDbEntity
  8
一般
370
              15
390
0
  6
Continuous
 62
               7
  0
POLYLINE
  5
17A
100
AcDbEntity
  8
0
370
              15
390
0
  6
Continuous
 62
               7
100
AcDb2dPolyline
 66
               1
 10
0.0
 20
0.0
 30
0.0
 70
               1
 75
               5
  0
VERTEX
  5
17B
100
AcDbEntity
  8
0
370
              15
390
0
  6
Continuous
 62
               7
100
AcDbVertex
100
AcDb2dVertex
 10
-637.23080510607451
 20
868.89210321795349
 30
0.0
  0
VERTEX
  5
17C
100
AcDbEntity
  8
0
370
              15
390
0
  6
Continuous
 62
               7
100
AcDbVertex
100
AcDb2dVertex
 10
-623.23079510607477
 20
868.89210321795349
 30
0.0
  0
VERTEX
  5
17D
100
AcDbEntity
  8
0
370
              15
390
0
  6
Continuous
 62
               7
100
AcDbVertex
100
AcDb2dVertex
 10
-623.23079510607477
 20
845.89110321795329
 30
0.0
  0
VERTEX
  5
17E
100
AcDbEntity
  8
0
370
              15
390
0
  6
Continuous
 62
               7
100
AcDbVertex
100
AcDb2dVertex
 10
-637.23080510607451
 20
845.89110321795329
 30
0.0
  0
SEQEND
  5
17F
100
AcDbEntity
  8
0
370
              15
390
0
  6
Continuous
 62
               7
  0
POLYLINE
  5
181
100
AcDbEntity
  8
0
370
              15
390
0
  6
Continuous
 62
               7
100
AcDb2dPolyline
 66
               1
 10
0.0
 20
0.0
 30
0.0
 70
               1
 75
               5
  0
VERTEX
  5
182
100
AcDbEntity
  8
0
370
              15
390
0
  6
Continuous
 62
               7
100
AcDbVertex
100
AcDb2dVertex
 10
-636.23218359665816
 20
845.89185554500955
 30
0.0
  0
VERTEX
  5
183
100
AcDbEntity
  8
0
370
              15
390
0
  6
Continuous
 62
               7
100
AcDbVertex
100
AcDb2dVertex
 10
-624.24218359665838
 20
845.89185554500955
 30
0.0
  0
VERTEX
  5
184
100
AcDbEntity
  8
0
370
              15
390
0
  6
Continuous
 62
               7
100
AcDbVertex
100
AcDb2dVertex
 10
-624.24218359665838
 20
844.89185554500955
 30
0.0
  0
VERTEX
  5
185
100
AcDbEntity
  8
0
370
              15
390
0
  6
Continuous
 62
               7
100
AcDbVertex
100
AcDb2dVertex
 10
-636.23218359665816
 20
844.89185554500955
 30
0.0
  0
SEQEND
  5
186
100
AcDbEntity
  8
0
370
              15
390
0
  6
Continuous
 62
               7
  0
POLYLINE
  5
188
100
AcDbEntity
  8
0
370
              15
390
0
  6
Continuous
 62
               7
100
AcDb2dPolyline
 66
               1
 10
0.0
 20
0.0
 30
0.0
 70
               1
 75
               5
  0
VERTEX
  5
189
100
AcDbEntity
  8
0
370
              15
390
0
  6
Continuous
 62
               7
100
AcDbVertex
100
AcDb2dVertex
 10
-637.23080510607451
 20
844.89210321805274
 30
0.0
  0
VERTEX
  5
18A
100
AcDbEntity
  8
0
370
              15
390
0
  6
Continuous
 62
               7
100
AcDbVertex
100
AcDb2dVertex
 10
-623.23079510607477
 20
844.89210321805274
 30
0.0
  0
VERTEX
  5
18B
100
AcDbEntity
  8
0
370
              15
390
0
  6
Continuous
 62
               7
100
AcDbVertex
100
AcDb2dVertex
 10
-623.23079510607477
 20
275.89210321805274
 30
0.0
  0
VERTEX
  5
18C
100
AcDbEntity
  8
0
370
              15
390
0
  6
Continuous
 62
               7
100
AcDbVertex
100
AcDb2dVertex
 10
-637.23080510607451
 20
275.89210321805274
 30
0.0
  0
SEQEND
  5
18D
100
AcDbEntity
  8
0
370
              15
390
0
  6
Continuous
 62
               7
  0
POLYLINE
  5
18F
100
AcDbEntity
  8
0
370
              15
390
0
  6
Continuous
 62
               7
100
AcDb2dPolyline
 66
               1
 10
0.0
 20
0.0
 30
0.0
 70
               1
 75
               5
  0
VERTEX
  5
190
100
AcDbEntity
  8
0
370
              15
390
0
  6
Continuous
 62
               7
100
AcDbVertex
100
AcDb2dVertex
 10
-637.23080510607451
 20
274.89210321805683
 30
0.0
  0
VERTEX
  5
191
100
AcDbEntity
  8
0
370
              15
390
0
  6
Continuous
 62
               7
100
AcDbVertex
100
AcDb2dVertex
 10
-623.23079510607477
 20
274.89210321805683
 30
0.0
  0
VERTEX
  5
192
100
AcDbEntity
  8
0
370
              15
390
0
  6
Continuous
 62
               7
100
AcDbVertex
100
AcDb2dVertex
 10
-623.23079510607477
 20
251.89210321805683
 30
0.0
  0
VERTEX
  5
193
100
AcDbEntity
  8
0
370
              15
390
0
  6
Continuous
 62
               7
100
AcDbVertex
100
AcDb2dVertex
 10
-637.23080510607451
 20
251.89210321805683
 30
0.0
  0
SEQEND
  5
194
100
AcDbEntity
  8
0
370
              15
390
0
  6
Continuous
 62
               7
  0
POLYLINE
  5
196
100
AcDbEntity
  8
0
370
              15
390
0
  6
Continuous
 62
               7
100
AcDb2dPolyline
 66
               1
 10
0.0
 20
0.0
 30
0.0
 70
               1
 75
               5
  0
VERTEX
  5
197
100
AcDbEntity
  8
0
370
              15
390
0
  6
Continuous
 62
               7
100
AcDbVertex
100
AcDb2dVertex
 10
-637.23080510607451
 20
250.8921032180715
 30
0.0
  0
VERTEX
  5
198
100
AcDbEntity
  8
0
370
              15
390
0
  6
Continuous
 62
               7
100
AcDbVertex
100
AcDb2dVertex
 10
-623.23079510607477
 20
250.8921032180715
 30
0.0
  0
VERTEX
  5
199
100
AcDbEntity
  8
0
370
              15
390
0
  6
Continuous
 62
               7
100
AcDbVertex
100
AcDb2dVertex
 10
-623.23079510607477
 20
-318.1078967819285
 30
0.0
  0
VERTEX
  5
19A
100
AcDbEntity
  8
0
370
              15
390
0
  6
Continuous
 62
               7
100
AcDbVertex
100
AcDb2dVertex
 10
-637.23080510607451
 20
-318.1078967819285
 30
0.0
  0
SEQEND
  5
19B
100
AcDbEntity
  8
0
370
              15
390
0
  6
Continuous
 62
               7
  0
POLYLINE
  5
19D
100
AcDbEntity
  8
0
370
              15
390
0
  6
Continuous
 62
               7
100
AcDb2dPolyline
 66
               1
 10
0.0
 20
0.0
 30
0.0
 70
               1
 75
               5
  0
VERTEX
  5
19E
100
AcDbEntity
  8
0
370
              15
390
0
  6
Continuous
 62
               7
100
AcDbVertex
100
AcDb2dVertex
 10
-637.23080510607451
 20
-319.1078967819285
 30
0.0
  0
VERTEX
  5
19F
100
AcDbEntity
  8
0
370
              15
390
0
  6
Continuous
 62
               7
100
AcDbVertex
100
AcDb2dVertex
 10
-623.23079510607477
 20
-319.1078967819285
 30
0.0
  0
VERTEX
  5
1A0
100
AcDbEntity
  8
0
370
              15
390
0
  6
Continuous
 62
               7
100
AcDbVertex
100
AcDb2dVertex
 10
-623.23079510607477
 20
-342.1078967819285
 30
0.0
  0
VERTEX
  5
1A1
100
AcDbEntity
  8
0
370
              15
390
0
  6
Continuous
 62
               7
100
AcDbVertex
100
AcDb2dVertex
 10
-637.23080510607451
 20
-342.1078967819285
 30
0.0
  0
SEQEND
  5
1A2
100
AcDbEntity
  8
0
370
              15
390
0
  6
Continuous
 62
               7
  0
POLYLINE
  5
1A4
100
AcDbEntity
  8
0
370
              15
390
0
  6
Continuous
 62
               7
100
AcDb2dPolyline
 66
               1
 10
0.0
 20
0.0
 30
0.0
 70
               1
 75
               5
  0
VERTEX
  5
1A5
100
AcDbEntity
  8
0
370
              15
390
0
  6
Continuous
 62
               7
100
AcDbVertex
100
AcDb2dVertex
 10
-636.23218359665816
 20
275.89185554510868
 30
0.0
  0
VERTEX
  5
1A6
100
AcDbEntity
  8
0
370
              15
390
0
  6
Continuous
 62
               7
100
AcDbVertex
100
AcDb2dVertex
 10
-624.24218359665838
 20
275.89185554510868
 30
0.0
  0
VERTEX
  5
1A7
100
AcDbEntity
  8
0
370
              15
390
0
  6
Continuous
 62
               7
100
AcDbVertex
100
AcDb2dVertex
 10
-624.24218359665838
 20
274.89185554510868
 30
0.0
  0
VERTEX
  5
1A8
100
AcDbEntity
  8
0
370
              15
390
0
  6
Continuous
 62
               7
100
AcDbVertex
100
AcDb2dVertex
 10
-636.23218359665816
 20
274.89185554510868
 30
0.0
  0
SEQEND
  5
1A9
100
AcDbEntity
  8
0
370
              15
390
0
  6
Continuous
 62
               7
  0
POLYLINE
  5
1AB
100
AcDbEntity
  8
0
370
              15
390
0
  6
Continuous
 62
               7
100
AcDb2dPolyline
 66
               1
 10
0.0
 20
0.0
 30
0.0
 70
               1
 75
               5
  0
VERTEX
  5
1AC
100
AcDbEntity
  8
0
370
              15
390
0
  6
Continuous
 62
               7
100
AcDbVertex
100
AcDb2dVertex
 10
-636.23218359665816
 20
251.89185554511278
 30
0.0
  0
VERTEX
  5
1AD
100
AcDbEntity
  8
0
370
              15
390
0
  6
Continuous
 62
               7
100
AcDbVertex
100
AcDb2dVertex
 10
-624.24218359665838
 20
251.89185554511278
 30
0.0
  0
VERTEX
  5
1AE
100
AcDbEntity
  8
0
370
              15
390
0
  6
Continuous
 62
               7
100
AcDbVertex
100
AcDb2dVertex
 10
-624.24218359665838
 20
250.89185554511278
 30
0.0
  0
VERTEX
  5
1AF
100
AcDbEntity
  8
0
370
              15
390
0
  6
Continuous
 62
               7
100
AcDbVertex
100
AcDb2dVertex
 10
-636.23218359665816
 20
250.89185554511278
 30
0.0
  0
SEQEND
  5
1B0
100
AcDbEntity
  8
0
370
              15
390
0
  6
Continuous
 62
               7
  0
POLYLINE
  5
1B2
100
AcDbEntity
  8
0
370
              15
390
0
  6
Continuous
 62
               7
100
AcDb2dPolyline
 66
               1
 10
0.0
 20
0.0
 30
0.0
 70
               1
 75
               5
  0
VERTEX
  5
1B3
100
AcDbEntity
  8
0
370
              15
390
0
  6
Continuous
 62
               7
100
AcDbVertex
100
AcDb2dVertex
 10
-636.23218359665816
 20
-318.10814445487267
 30
0.0
  0
VERTEX
  5
1B4
100
AcDbEntity
  8
0
370
              15
390
0
  6
Continuous
 62
               7
100
AcDbVertex
100
AcDb2dVertex
 10
-624.24218359665838
 20
-318.10814445487267
 30
0.0
  0
VERTEX
  5
1B5
100
AcDbEntity
  8
0
370
              15
390
0
  6
Continuous
 62
               7
100
AcDbVertex
100
AcDb2dVertex
 10
-624.24218359665838
 20
-319.10814445487267
 30
0.0
  0
VERTEX
  5
1B6
100
AcDbEntity
  8
0
370
              15
390
0
  6
Continuous
 62
               7
100
AcDbVertex
100
AcDb2dVertex
 10
-636.23218359665816
 20
-319.10814445487267
 30
0.0
  0
SEQEND
  5
1B7
100
AcDbEntity
  8
0
370
              15
390
0
  6
Continuous
 62
               7
  0
POLYLINE
  5
1B9
100
AcDbEntity
  8
0
370
              15
390
0
  6
Continuous
 62
               7
100
AcDb2dPolyline
 66
               1
 10
0.0
 20
0.0
 30
0.0
 70
               1
 75
               5
  0
VERTEX
  5
1BA
100
AcDbEntity
  8
0
370
              15
390
0
  6
Continuous
 62
               7
100
AcDbVertex
100
AcDb2dVertex
 10
1045.3343018783844
 20
253.76558169406235
 30
0.0
  0
VERTEX
  5
1BB
100
AcDbEntity
  8
0
370
              15
390
0
  6
Continuous
 62
               7
100
AcDbVertex
100
AcDb2dVertex
 10
1059.3343118783869
 20
253.76558169406235
 30
0.0
  0
VERTEX
  5
1BC
100
AcDbEntity
  8
0
370
              15
390
0
  6
Continuous
 62
               7
100
AcDbVertex
100
AcDb2dVertex
 10
1059.3343118783869
 20
-315.23441830593765
 30
0.0
  0
VERTEX
  5
1BD
100
AcDbEntity
  8
0
370
              15
390
0
  6
Continuous
 62
               7
100
AcDbVertex
100
AcDb2dVertex
 10
1045.3343018783844
 20
-315.23441830593765
 30
0.0
  0
SEQEND
  5
1BE
100
AcDbEntity
  8
0
370
              15
390
0
  6
Continuous
 62
               7
  0
POLYLINE
  5
1C0
100
AcDbEntity
  8
0
370
              15
390
0
  6
Continuous
 62
               7
100
AcDb2dPolyline
 66
               1
 10
0.0
 20
0.0
 30
0.0
 70
               1
 75
               5
  0
VERTEX
  5
1C1
100
AcDbEntity
  8
0
370
              15
390
0
  6
Continuous
 62
               7
100
AcDbVertex
100
AcDb2dVertex
 10
1046.3329233878007
 20
254.76533402109771
 30
0.0
  0
VERTEX
  5
1C2
100
AcDbEntity
  8
0
370
              15
390
0
  6
Continuous
 62
               7
100
AcDbVertex
100
AcDb2dVertex
 10
1058.3229233878033
 20
254.76533402109771
 30
0.0
  0
VERTEX
  5
1C3
100
AcDbEntity
  8
0
370
              15
390
0
  6
Continuous
 62
               7
100
AcDbVertex
100
AcDb2dVertex
 10
1058.3229233878033
 20
253.76533402109771
 30
0.0
  0
VERTEX
  5
1C4
100
AcDbEntity
  8
0
370
              15
390
0
  6
Continuous
 62
               7
100
AcDbVertex
100
AcDb2dVertex
 10
1046.3329233878007
 20
253.76533402109771
 30
0.0
  0
SEQEND
  5
1C5
100
AcDbEntity
  8
0
370
              15
390
0
  6
Continuous
 62
               7
  0
POLYLINE
  5
1C7
100
AcDbEntity
  8
0
370
              15
390
0
  6
Continuous
 62
               7
100
AcDb2dPolyline
 66
               1
 10
0.0
 20
0.0
 30
0.0
 70
               1
 75
               5
  0
VERTEX
  5
1C8
100
AcDbEntity
  8
0
370
              15
390
0
  6
Continuous
 62
               7
100
AcDbVertex
100
AcDb2dVertex
 10
1046.3329233878007
 20
-315.23466597888182
 30
0.0
  0
VERTEX
  5
1C9
100
AcDbEntity
  8
0
370
              15
390
0
  6
Continuous
 62
               7
100
AcDbVertex
100
AcDb2dVertex
 10
1058.3229233878033
 20
-315.23466597888182
 30
0.0
  0
VERTEX
  5
1CA
100
AcDbEntity
  8
0
370
              15
390
0
  6
Continuous
 62
               7
100
AcDbVertex
100
AcDb2dVertex
 10
1058.3229233878033
 20
-316.23466597888182
 30
0.0
  0
VERTEX
  5
1CB
100
AcDbEntity
  8
0
370
              15
390
0
  6
Continuous
 62
               7
100
AcDbVertex
100
AcDb2dVertex
 10
1046.3329233878007
 20
-316.23466597888182
 30
0.0
  0
SEQEND
  5
1CC
100
AcDbEntity
  8
0
370
              15
390
0
  6
Continuous
 62
               7
  0
POLYLINE
  5
1CE
100
AcDbEntity
  8
0
370
              15
390
0
  6
Continuous
 62
               7
100
AcDb2dPolyline
 66
               1
 10
0.0
 20
0.0
 30
0.0
 70
               1
 75
               5
  0
VERTEX
  5
1CF
100
AcDbEntity
  8
0
370
              15
390
0
  6
Continuous
 62
               7
100
AcDbVertex
100
AcDb2dVertex
 10
1045.3343018783844
 20
847.66402312602975
 30
0.0
  0
VERTEX
  5
1D0
100
AcDbEntity
  8
0
370
              15
390
0
  6
Continuous
 62
               7
100
AcDbVertex
100
AcDb2dVertex
 10
1059.3343118783869
 20
847.66402312602975
 30
0.0
  0
VERTEX
  5
1D1
100
AcDbEntity
  8
0
370
              15
390
0
  6
Continuous
 62
               7
100
AcDbVertex
100
AcDb2dVertex
 10
1059.3343118783869
 20
278.66402312602975
 30
0.0
  0
VERTEX
  5
1D2
100
AcDbEntity
  8
0
370
              15
390
0
  6
Continuous
 62
               7
100
AcDbVertex
100
AcDb2dVertex
 10
1045.3343018783844
 20
278.66402312602975
 30
0.0
  0
SEQEND
  5
1D3
100
AcDbEntity
  8
0
370
              15
390
0
  6
Continuous
 62
               7
  0
POLYLINE
  5
1D5
100
AcDbEntity
  8
0
370
              15
390
0
  6
Continuous
 62
               7
100
AcDb2dPolyline
 66
               1
 10
0.0
 20
0.0
 30
0.0
 70
               1
 75
               5
  0
VERTEX
  5
1D6
100
AcDbEntity
  8
0
370
              15
390
0
  6
Continuous
 62
               7
100
AcDbVertex
100
AcDb2dVertex
 10
1046.3329233878007
 20
848.66377545302339
 30
0.0
  0
VERTEX
  5
1D7
100
AcDbEntity
  8
0
370
              15
390
0
  6
Continuous
 62
               7
100
AcDbVertex
100
AcDb2dVertex
 10
1058.3229233878033
 20
848.66377545302339
 30
0.0
  0
VERTEX
  5
1D8
100
AcDbEntity
  8
0
370
              15
390
0
  6
Continuous
 62
               7
100
AcDbVertex
100
AcDb2dVertex
 10
1058.3229233878033
 20
847.66377545302339
 30
0.0
  0
VERTEX
  5
1D9
100
AcDbEntity
  8
0
370
              15
390
0
  6
Continuous
 62
               7
100
AcDbVertex
100
AcDb2dVertex
 10
1046.3329233878007
 20
847.66377545302339
 30
0.0
  0
SEQEND
  5
1DA
100
AcDbEntity
  8
0
370
              15
390
0
  6
Continuous
 62
               7
  0
POLYLINE
  5
1DC
100
AcDbEntity
  8
0
370
              15
390
0
  6
Continuous
 62
               7
100
AcDb2dPolyline
 66
               1
 10
0.0
 20
0.0
 30
0.0
 70
               1
 75
               5
  0
VERTEX
  5
1DD
100
AcDbEntity
  8
0
370
              15
390
0
  6
Continuous
 62
               7
100
AcDbVertex
100
AcDb2dVertex
 10
1046.3329233878007
 20
278.66377545308569
 30
0.0
  0
VERTEX
  5
1DE
100
AcDbEntity
  8
0
370
              15
390
0
  6
Continuous
 62
               7
100
AcDbVertex
100
AcDb2dVertex
 10
1058.3229233878033
 20
278.66377545308569
 30
0.0
  0
VERTEX
  5
1DF
100
AcDbEntity
  8
0
370
              15
390
0
  6
Continuous
 62
               7
100
AcDbVertex
100
AcDb2dVertex
 10
1058.3229233878033
 20
277.66377545308569
 30
0.0
  0
VERTEX
  5
1E0
100
AcDbEntity
  8
0
370
              15
390
0
  6
Continuous
 62
               7
100
AcDbVertex
100
AcDb2dVertex
 10
1046.3329233878007
 20
277.66377545308569
 30
0.0
  0
SEQEND
  5
1E1
100
AcDbEntity
  8
0
370
              15
390
0
  6
Continuous
 62
               7
  0
POLYLINE
  5
1E3
100
AcDbEntity
  8
0
370
              15
390
0
  6
Continuous
 62
               7
100
AcDb2dPolyline
 66
               1
 10
0.0
 20
0.0
 30
0.0
 70
               1
 75
               5
  0
VERTEX
  5
1E4
100
AcDbEntity
  8
0
370
              15
390
0
  6
Continuous
 62
               7
100
AcDbVertex
100
AcDb2dVertex
 10
1010.3656029991743
 20
-316.2844581062127
 30
0.0
  0
VERTEX
  5
1E5
100
AcDbEntity
  8
0
370
              15
390
0
  6
Continuous
 62
               7
100
AcDbVertex
100
AcDb2dVertex
 10
1059.3656029991839
 20
-316.2844581062127
 30
0.0
  0
VERTEX
  5
1E6
100
AcDbEntity
  8
0
370
              15
390
0
  6
Continuous
 62
               7
100
AcDbVertex
100
AcDb2dVertex
 10
1059.3656029991839
 20
-339.2844581062127
 30
0.0
  0
VERTEX
  5
1E7
100
AcDbEntity
  8
0
370
              15
390
0
  6
Continuous
 62
               7
100
AcDbVertex
100
AcDb2dVertex
 10
1010.3656029991743
 20
-339.2844581062127
 30
0.0
  0
SEQEND
  5
1E8
100
AcDbEntity
  8
0
370
              15
390
0
  6
Continuous
 62
               7
  0
POLYLINE
  5
1EA
100
AcDbEntity
  8
0
370
              15
390
0
  6
Continuous
 62
               7
100
AcDb2dPolyline
 66
               1
 10
0.0
 20
0.0
 30
0.0
 70
               1
 75
               5
  0
VERTEX
  5
1EB
100
AcDbEntity
  8
0
370
              15
390
0
  6
Continuous
 62
               7
100
AcDbVertex
100
AcDb2dVertex
 10
1052.4360443054643
 20
-316.2844581062127
 30
0.0
  0
VERTEX
  5
1EC
100
AcDbEntity
  8
0
370
              15
390
0
  6
Continuous
 62
               7
100
AcDbVertex
100
AcDb2dVertex
 10
1059.3656029991839
 20
-316.2844581062127
 30
0.0
  0
VERTEX
  5
1ED
100
AcDbEntity
  8
0
370
              15
390
0
  6
Continuous
 62
               7
100
AcDbVertex
100
AcDb2dVertex
 10
1059.3656029991839
 20
-339.2844581062127
 30
0.0
  0
VERTEX
  5
1EE
100
AcDbEntity
  8
0
370
              15
390
0
  6
Continuous
 62
               7
100
AcDbVertex
100
AcDb2dVertex
 10
1052.4360443054643
 20
-339.2844581062127
 30
0.0
  0
SEQEND
  5
1EF
100
AcDbEntity
  8
0
370
              15
390
0
  6
Continuous
 62
               7
  0
POLYLINE
  5
1F1
100
AcDbEntity
  8
0
370
              15
390
0
  6
Continuous
 62
               7
100
AcDb2dPolyline
 66
               1
 10
0.0
 20
0.0
 30
0.0
 70
               1
 75
               5
  0
VERTEX
  5
1F2
100
AcDbEntity
  8
0
370
              15
390
0
  6
Continuous
 62
               7
100
AcDbVertex
100
AcDb2dVertex
 10
1010.3656029991743
 20
277.74672064021183
 30
0.0
  0
VERTEX
  5
1F3
100
AcDbEntity
  8
0
370
              15
390
0
  6
Continuous
 62
               7
100
AcDbVertex
100
AcDb2dVertex
 10
1059.3656029991839
 20
277.74672064021183
 30
0.0
  0
VERTEX
  5
1F4
100
AcDbEntity
  8
0
370
              15
390
0
  6
Continuous
 62
               7
100
AcDbVertex
100
AcDb2dVertex
 10
1059.3656029991839
 20
254.74672064021183
 30
0.0
  0
VERTEX
  5
1F5
100
AcDbEntity
  8
0
370
              15
390
0
  6
Continuous
 62
               7
100
AcDbVertex
100
AcDb2dVertex
 10
1010.3656029991743
 20
254.74672064021183
 30
0.0
  0
SEQEND
  5
1F6
100
AcDbEntity
  8
0
370
              15
390
0
  6
Continuous
 62
               7
  0
POLYLINE
  5
1F8
100
AcDbEntity
  8
0
370
              15
390
0
  6
Continuous
 62
               7
100
AcDb2dPolyline
 66
               1
 10
0.0
 20
0.0
 30
0.0
 70
               1
 75
               5
  0
VERTEX
  5
1F9
100
AcDbEntity
  8
0
370
              15
390
0
  6
Continuous
 62
               7
100
AcDbVertex
100
AcDb2dVertex
 10
1052.4360443054643
 20
277.74672064021183
 30
0.0
  0
VERTEX
  5
1FA
100
AcDbEntity
  8
0
370
              15
390
0
  6
Continuous
 62
               7
100
AcDbVertex
100
AcDb2dVertex
 10
1059.3656029991839
 20
277.74672064021183
 30
0.0
  0
VERTEX
  5
1FB
100
AcDbEntity
  8
0
370
              15
390
0
  6
Continuous
 62
               7
100
AcDbVertex
100
AcDb2dVertex
 10
1059.3656029991839
 20
254.74672064021183
 30
0.0
  0
VERTEX
  5
1FC
100
AcDbEntity
  8
0
370
              15
390
0
  6
Continuous
 62
               7
100
AcDbVertex
100
AcDb2dVertex
 10
1052.4360443054643
 20
254.74672064021183
 30
0.0
  0
SEQEND
  5
1FD
100
AcDbEntity
  8
0
370
              15
390
0
  6
Continuous
 62
               7
  0
POLYLINE
  5
1FF
100
AcDbEntity
  8
0
370
              15
390
0
  6
Continuous
 62
               7
100
AcDb2dPolyline
 66
               1
 10
0.0
 20
0.0
 30
0.0
 70
               1
 75
               5
  0
VERTEX
  5
200
100
AcDbEntity
  8
0
370
              15
390
0
  6
Continuous
 62
               7
100
AcDbVertex
100
AcDb2dVertex
 10
1010.3656029991743
 20
871.68527766428019
 30
0.0
  0
VERTEX
  5
201
100
AcDbEntity
  8
0
370
              15
390
0
  6
Continuous
 62
               7
100
AcDbVertex
100
AcDb2dVertex
 10
1059.3656029991839
 20
871.68527766428019
 30
0.0
  0
VERTEX
  5
202
100
AcDbEntity
  8
0
370
              15
390
0
  6
Continuous
 62
               7
100
AcDbVertex
100
AcDb2dVertex
 10
1059.3656029991839
 20
848.68527766428019
 30
0.0
  0
VERTEX
  5
203
100
AcDbEntity
  8
0
370
              15
390
0
  6
Continuous
 62
               7
100
AcDbVertex
100
AcDb2dVertex
 10
1010.3656029991743
 20
848.68527766428019
 30
0.0
  0
SEQEND
  5
204
100
AcDbEntity
  8
0
370
              15
390
0
  6
Continuous
 62
               7
  0
POLYLINE
  5
206
100
AcDbEntity
  8
0
370
              15
390
0
  6
Continuous
 62
               7
100
AcDb2dPolyline
 66
               1
 10
0.0
 20
0.0
 30
0.0
 70
               1
 75
               5
  0
VERTEX
  5
207
100
AcDbEntity
  8
0
370
              15
390
0
  6
Continuous
 62
               7
100
AcDbVertex
100
AcDb2dVertex
 10
1052.4360443054643
 20
871.68527766428019
 30
0.0
  0
VERTEX
  5
208
100
AcDbEntity
  8
0
370
              15
390
0
  6
Continuous
 62
               7
100
AcDbVertex
100
AcDb2dVertex
 10
1059.3656029991839
 20
871.68527766428019
 30
0.0
  0
VERTEX
  5
209
100
AcDbEntity
  8
0
370
              15
390
0
  6
Continuous
 62
               7
100
AcDbVertex
100
AcDb2dVertex
 10
1059.3656029991839
 20
848.68527766428019
 30
0.0
  0
VERTEX
  5
20A
100
AcDbEntity
  8
0
370
              15
390
0
  6
Continuous
 62
               7
100
AcDbVertex
100
AcDb2dVertex
 10
1052.4360443054643
 20
848.68527766428019
 30
0.0
  0
SEQEND
  5
20B
100
AcDbEntity
  8
0
370
              15
390
0
  6
Continuous
 62
               7
  0
LINE
  5
20D
100
AcDbEntity
  8
一般
370
              18
390
0
  6
Continuous
 62
               7
100
AcDbLine
 10
-3228.0039585252034
 20
-583.66422097391091
 30
0.0
 11
-2777.0039585252034
 21
-583.66422097391091
 31
0.0
  0
LINE
  5
20E
100
AcDbEntity
  8
一般
370
              18
390
0
  6
Continuous
 62
               7
100
AcDbLine
 10
-3228.0039585252034
 20
-678.66422097391091
 30
0.0
 11
-2777.0039585252034
 21
-678.66422097391091
 31
0.0
  0
LINE
  5
20F
100
AcDbEntity
  8
一般
370
              18
390
0
  6
Continuous
 62
               7
100
AcDbLine
 10
-3228.0039585252034
 20
-758.66422097391091
 30
0.0
 11
-2777.0039585252034
 21
-758.66422097391091
 31
0.0
  0
POLYLINE
  5
210
100
AcDbEntity
  8
0
370
              15
390
0
  6
Continuous
 62
               7
100
AcDb2dPolyline
 66
               1
 10
0.0
 20
0.0
 30
0.0
 70
               1
 75
               5
  0
VERTEX
  5
211
100
AcDbEntity
  8
0
370
              15
390
0
  6
Continuous
 62
               7
100
AcDbVertex
100
AcDb2dVertex
 10
-3208.189489443439
 20
-594.05473179697651
 30
0.0
  0
VERTEX
  5
212
100
AcDbEntity
  8
0
370
              15
390
0
  6
Continuous
 62
               7
100
AcDbVertex
100
AcDb2dVertex
 10
-3002.1505706998396
 20
-594.05473179697651
 30
0.0
  0
VERTEX
  5
213
100
AcDbEntity
  8
0
370
              15
390
0
  6
Continuous
 62
               7
100
AcDbVertex
100
AcDb2dVertex
 10
-3002.1505706998396
 20
-668.62407001964289
 30
0.0
  0
VERTEX
  5
214
100
AcDbEntity
  8
0
370
              15
390
0
  6
Continuous
 62
               7
100
AcDbVertex
100
AcDb2dVertex
 10
-3208.189489443439
 20
-668.62407001964289
 30
0.0
  0
SEQEND
  5
215
100
AcDbEntity
  8
0
370
              15
390
0
  6
Continuous
 62
               7
  0
POLYLINE
  5
217
100
AcDbEntity
  8
0
370
              15
390
0
  6
Continuous
 62
               7
100
AcDb2dPolyline
 66
               1
 10
0.0
 20
0.0
 30
0.0
 70
               1
 75
               5
  0
VERTEX
  5
218
100
AcDbEntity
  8
0
370
              15
390
0
  6
Continuous
 62
               7
100
AcDbVertex
100
AcDb2dVertex
 10
-2982.1505706998159
 20
-583.62407001964289
 30
0.0
  0
VERTEX
  5
219
100
AcDbEntity
  8
0
370
              15
390
0
  6
Continuous
 62
               7
100
AcDbVertex
100
AcDb2dVertex
 10
-2777.1505706998159
 20
-583.62407001964289
 30
0.0
  0
VERTEX
  5
21A
100
AcDbEntity
  8
0
370
              15
390
0
  6
Continuous
 62
               7
100
AcDbVertex
100
AcDb2dVertex
 10
-2777.1505706998159
 20
-653.62407001964289
 30
0.0
  0
VERTEX
  5
21B
100
AcDbEntity
  8
0
370
              15
390
0
  6
Continuous
 62
               7
100
AcDbVertex
100
AcDb2dVertex
 10
-2982.1505706998159
 20
-653.62407001964289
 30
0.0
  0
SEQEND
  5
21C
100
AcDbEntity
  8
0
370
              15
390
0
  6
Continuous
 62
               7
  0
LINE
  5
21E
100
AcDbEntity
  8
0
370
              15
390
0
  6
Continuous
 62
               7
100
AcDbLine
 10
-3208.189489443439
 20
-611.8759121551127
 30
0.0
 11
-3003.189489443439
 21
-611.8759121551127
 31
0.0
  0
LINE
  5
21F
100
AcDbEntity
  8
0
370
              15
390
0
  6
Continuous
 62
               7
100
AcDbLine
 10
-3208.189489443439
 20
-630.6259121551127
 30
0.0
 11
-3003.189489443439
 21
-630.6259121551127
 31
0.0
  0
LINE
  5
220
100
AcDbEntity
  8
0
370
              15
390
0
  6
Continuous
 62
               7
100
AcDbLine
 10
-3208.189489443439
 20
-649.3759121551127
 30
0.0
 11
-3003.189489443439
 21
-649.3759121551127
 31
0.0
  0
LINE
  5
221
100
AcDbEntity
  8
一般
370
              15
390
0
  6
Continuous
 62
               7
100
AcDbLine
 10
-3208.074859567103
 20
-688.66422097391091
 30
0.0
 11
-2797.5004613501678
 21
-688.66422097391091
 31
0.0
  0
LINE
  5
222
100
AcDbEntity
  8
一般
370
              15
390
0
  6
Continuous
 62
               7
100
AcDbLine
 10
-3208.074859567103
 20
-748.66422097391091
 30
0.0
 11
-2797.5004613501678
 21
-748.66422097391091
 31
0.0
  0
LINE
  5
223
100
AcDbEntity
  8
0
370
              15
390
0
  6
Continuous
 62
               7
100
AcDbLine
 10
-3208.074859567103
 20
-688.71882482045135
 30
0.0
 11
-3208.074859567103
 21
-748.71882482045135
 31
0.0
  0
LINE
  5
224
100
AcDbEntity
  8
0
370
              15
390
0
  6
Continuous
 62
               7
100
AcDbLine
 10
-2797.5004613501678
 20
-688.71882482045135
 30
0.0
 11
-2797.5004613501678
 21
-748.71882482045135
 31
0.0
  0
LINE
  5
225
100
AcDbEntity
  8
一般
370
              15
390
0
  6
Continuous
 62
               7
100
AcDbLine
 10
-3208.074859567103
 20
-708.66422097391091
 30
0.0
 11
-2797.5004613501678
 21
-708.66422097391091
 31
0.0
  0
LINE
  5
226
100
AcDbEntity
  8
一般
370
              15
390
0
  6
Continuous
 62
               7
100
AcDbLine
 10
-3208.074859567103
 20
-728.66422097391091
 30
0.0
 11
-2797.5004613501678
 21
-728.66422097391091
 31
0.0
  0
WIPEOUT
  5
227
100
AcDbEntity
  8
0
370
              15
390
0
  6
Continuous
 62
               7
 92
        0
100
AcDbWipeout
 90
        0
 10
-3026.7186509339163
 20
-748.87699819894328
 30
0.0
 11
60.0
 21
0.0
 31
0.0
 12
0.0
 22
60.0
 32
0.0
 13
1.0
 23
1.0
340
0
 70
               7
280
               1
281
              50
282
              50
283
               0
360
0
 71
               2
 91
        5
 14
-0.5
 24
-0.5
 14
-0.3666666666666667
 24
-0.5
 14
-0.3666666666666667
 24
0.5
 14
-0.5
 24
0.5
 14
-0.5
 24
-0.5
  0
POLYLINE
  5
228
100
AcDbEntity
  8
0
370
              15
390
0
  6
Continuous
 62
               7
100
AcDb2dPolyline
 66
               1
 10
0.0
 20
0.0
 30
0.0
 70
               1
 75
               5
  0
VERTEX
  5
229
100
AcDbEntity
  8
0
370
              15
390
0
  6
Continuous
 62
               7
100
AcDbVertex
100
AcDb2dVertex
 10
-3026.7186509339163
 20
-688.87699819894328
 30
0.0
  0
VERTEX
  5
22A
100
AcDbEntity
  8
0
370
              15
390
0
  6
Continuous
 62
               7
100
AcDbVertex
100
AcDb2dVertex
 10
-3018.7186509339163
 20
-688.87699819894328
 30
0.0
  0
VERTEX
  5
22B
100
AcDbEntity
  8
0
370
              15
390
0
  6
Continuous
 62
               7
100
AcDbVertex
100
AcDb2dVertex
 10
-3018.7186509339163
 20
-748.87699819894328
 30
0.0
  0
VERTEX
  5
22C
100
AcDbEntity
  8
0
370
              15
390
0
  6
Continuous
 62
               7
100
AcDbVertex
100
AcDb2dVertex
 10
-3026.7186509339163
 20
-748.87699819894328
 30
0.0
  0
SEQEND
  5
22D
100
AcDbEntity
  8
0
370
              15
390
0
  6
Continuous
 62
               7
  0
WIPEOUT
  5
22F
100
AcDbEntity
  8
0
370
              15
390
0
  6
Continuous
 62
               7
 92
        0
100
AcDbWipeout
 90
        0
 10
-3028.189489443439
 20
-668.26010279833008
 30
0.0
 11
74.205371001353569
 21
0.0
 31
0.0
 12
0.0
 22
74.205371001353569
 32
0.0
 13
1.0
 23
1.0
340
0
 70
               7
280
               1
281
              50
282
              50
283
               0
360
0
 71
               2
 91
        5
 14
-0.5
 24
-0.5
 14
-0.3787149787333341
 24
-0.5
 14
-0.3787149787333341
 24
0.5
 14
-0.5
 24
0.5
 14
-0.5
 24
-0.5
  0
POLYLINE
  5
230
100
AcDbEntity
  8
0
370
              15
390
0
  6
Continuous
 62
               7
100
AcDb2dPolyline
 66
               1
 10
0.0
 20
0.0
 30
0.0
 70
               1
 75
               5
  0
VERTEX
  5
231
100
AcDbEntity
  8
0
370
              15
390
0
  6
Continuous
 62
               7
100
AcDbVertex
100
AcDb2dVertex
 10
-3028.189489443439
 20
-594.05473179697651
 30
0.0
  0
VERTEX
  5
232
100
AcDbEntity
  8
0
370
              15
390
0
  6
Continuous
 62
               7
100
AcDbVertex
100
AcDb2dVertex
 10
-3019.189489443439
 20
-594.05473179697651
 30
0.0
  0
VERTEX
  5
233
100
AcDbEntity
  8
0
370
              15
390
0
  6
Continuous
 62
               7
100
AcDbVertex
100
AcDb2dVertex
 10
-3019.189489443439
 20
-668.26010279833008
 30
0.0
  0
VERTEX
  5
234
100
AcDbEntity
  8
0
370
              15
390
0
  6
Continuous
 62
               7
100
AcDbVertex
100
AcDb2dVertex
 10
-3028.189489443439
 20
-668.26010279833008
 30
0.0
  0
SEQEND
  5
235
100
AcDbEntity
  8
0
370
              15
390
0
  6
Continuous
 62
               7
  0
WIPEOUT
  5
237
100
AcDbEntity
  8
寸法
370
              15
390
0
  6
Continuous
 62
               7
 92
        0
100
AcDbWipeout
 90
        0
 10
-2976.342602325426
 20
1207.2372916796271
 30
0.0
 11
188.12518006874052
 21
0.0
 31
0.0
 12
0.0
 22
188.12518006874052
 32
0.0
 13
1.0
 23
1.0
340
0
 70
               7
280
               1
281
              50
282
              50
283
               0
360
0
 71
               2
 91
        5
 14
-0.5
 24
0.2501663520915886
 14
0.5
 24
0.2501663520915886
 14
0.5
 24
0.5
 14
-0.5
 24
0.5
 14
-0.5
 24
0.2501663520915886
  0
POLYLINE
  5
238
100
AcDbEntity
  8
寸法
370
              15
390
0
  6
Continuous
 62
               7
100
AcDb2dPolyline
 66
               1
 10
0.0
 20
0.0
 30
0.0
 70
               1
 75
               5
  0
VERTEX
  5
239
100
AcDbEntity
  8
寸法
370
              15
390
0
  6
Continuous
 62
               7
100
AcDbVertex
100
AcDb2dVertex
 10
-2976.342602325426
 20
1254.2372916796273
 30
0.0
  0
VERTEX
  5
23A
100
AcDbEntity
  8
寸法
370
              15
390
0
  6
Continuous
 62
               7
100
AcDbVertex
100
AcDb2dVertex
 10
-2788.2174222566855
 20
1254.2372916796273
 30
0.0
  0
VERTEX
  5
23B
100
AcDbEntity
  8
寸法
370
              15
390
0
  6
Continuous
 62
               7
100
AcDbVertex
100
AcDb2dVertex
 10
-2788.2174222566855
 20
1207.2372916796271
 30
0.0
  0
VERTEX
  5
23C
100
AcDbEntity
  8
寸法
370
              15
390
0
  6
Continuous
 62
               7
100
AcDbVertex
100
AcDb2dVertex
 10
-2976.342602325426
 20
1207.2372916796271
 30
0.0
  0
SEQEND
  5
23D
100
AcDbEntity
  8
寸法
370
              15
390
0
  6
Continuous
 62
               7
  0
POLYLINE
  5
23F
100
AcDbEntity
  8
0
370
              15
390
0
  6
Continuous
 62
               7
100
AcDb2dPolyline
 66
               1
 10
0.0
 20
0.0
 30
0.0
 70
               1
 75
               5
  0
VERTEX
  5
240
100
AcDbEntity
  8
0
370
              15
390
0
  6
Continuous
 62
               7
100
AcDbVertex
100
AcDb2dVertex
 10
-2987.5647815130615
 20
1266.3511565801919
 30
0.0
  0
VERTEX
  5
241
100
AcDbEntity
  8
0
370
              15
390
0
  6
Continuous
 62
               7
100
AcDbVertex
100
AcDb2dVertex
 10
-2777.0999914094809
 20
1266.3511565801919
 30
0.0
  0
VERTEX
  5
242
100
AcDbEntity
  8
0
370
              15
390
0
  6
Continuous
 62
               7
100
AcDbVertex
100
AcDb2dVertex
 10
-2777.0999914094809
 20
1196.3511565801916
 30
0.0
  0
VERTEX
  5
243
100
AcDbEntity
  8
0
370
              15
390
0
  6
Continuous
 62
               7
100
AcDbVertex
100
AcDb2dVertex
 10
-2987.5647815130615
 20
1196.3511565801916
 30
0.0
  0
SEQEND
  5
244
100
AcDbEntity
  8
0
370
              15
390
0
  6
Continuous
 62
               7
  0
POLYLINE
  5
246
100
AcDbEntity
  8
0
370
              15
390
0
  6
Continuous
 62
               7
100
AcDb2dPolyline
 66
               1
 10
0.0
 20
0.0
 30
0.0
 70
               1
 75
               5
  0
VERTEX
  5
247
100
AcDbEntity
  8
0
370
              15
390
0
  6
Continuous
 62
               7
100
AcDbVertex
100
AcDb2dVertex
 10
-2980.0323864612719
 20
1259.3511565801916
 30
0.0
  0
VERTEX
  5
248
100
AcDbEntity
  8
0
370
              15
390
0
  6
Continuous
 62
               7
100
AcDbVertex
100
AcDb2dVertex
 10
-2784.0323864612719
 20
1259.3511565801916
 30
0.0
  0
VERTEX
  5
249
100
AcDbEntity
  8
0
370
              15
390
0
  6
Continuous
 62
               7
100
AcDbVertex
100
AcDb2dVertex
 10
-2784.0323864612719
 20
1203.3511565801914
 30
0.0
  0
VERTEX
  5
24A
100
AcDbEntity
  8
0
370
              15
390
0
  6
Continuous
 62
               7
100
AcDbVertex
100
AcDb2dVertex
 10
-2980.0323864612719
 20
1203.3511565801914
 30
0.0
  0
SEQEND
  5
24B
100
AcDbEntity
  8
0
370
              15
390
0
  6
Continuous
 62
               7
  0
POLYLINE
  5
24D
100
AcDbEntity
  8
0
370
              15
390
0
  6
Continuous
 62
               7
100
AcDb2dPolyline
 66
               1
 10
0.0
 20
0.0
 30
0.0
 70
               1
 75
               5
  0
VERTEX
  5
24E
100
AcDbEntity
  8
0
370
              15
390
0
  6
Continuous
 62
               7
100
AcDbVertex
100
AcDb2dVertex
 10
-3228.1067423284649
 20
1266.3511565801919
 30
0.0
  0
VERTEX
  5
24F
100
AcDbEntity
  8
0
370
              15
390
0
  6
Continuous
 62
               7
100
AcDbVertex
100
AcDb2dVertex
 10
-3018.1067423284649
 20
1266.3511565801919
 30
0.0
  0
VERTEX
  5
250
100
AcDbEntity
  8
0
370
              15
390
0
  6
Continuous
 62
               7
100
AcDbVertex
100
AcDb2dVertex
 10
-3018.1067423284649
 20
1196.3511565801916
 30
0.0
  0
VERTEX
  5
251
100
AcDbEntity
  8
0
370
              15
390
0
  6
Continuous
 62
               7
100
AcDbVertex
100
AcDb2dVertex
 10
-3228.1067423284649
 20
1196.3511565801916
 30
0.0
  0
SEQEND
  5
252
100
AcDbEntity
  8
0
370
              15
390
0
  6
Continuous
 62
               7
  0
WIPEOUT
  5
254
100
AcDbEntity
  8
0
370
              15
390
0
  6
Continuous
 62
               7
 92
        0
100
AcDbWipeout
 90
        0
 10
-3062.1730921590051
 20
1186.286007463948
 30
0.0
 11
120.0
 21
0.0
 31
0.0
 12
0.0
 22
120.0
 32
0.0
 13
1.0
 23
1.0
340
0
 70
               7
280
               1
281
              50
282
              50
283
               0
360
0
 71
               2
 91
        5
 14
-0.5
 24
0.0416666666666648
 14
0.5
 24
0.0416666666666648
 14
0.5
 24
0.5
 14
-0.5
 24
0.5
 14
-0.5
 24
0.0416666666666648
  0
POLYLINE
  5
255
100
AcDbEntity
  8
0
370
              15
390
0
  6
Continuous
 62
               7
100
AcDb2dPolyline
 66
               1
 10
0.0
 20
0.0
 30
0.0
 70
               1
 75
               5
  0
VERTEX
  5
256
100
AcDbEntity
  8
0
370
              15
390
0
  6
Continuous
 62
               7
100
AcDbVertex
100
AcDb2dVertex
 10
-3062.1730921590051
 20
1241.2860074639482
 30
0.0
  0
VERTEX
  5
257
100
AcDbEntity
  8
0
370
              15
390
0
  6
Continuous
 62
               7
100
AcDbVertex
100
AcDb2dVertex
 10
-2942.1730921590051
 20
1241.2860074639482
 30
0.0
  0
VERTEX
  5
258
100
AcDbEntity
  8
0
370
              15
390
0
  6
Continuous
 62
               7
100
AcDbVertex
100
AcDb2dVertex
 10
-2942.1730921590051
 20
1186.286007463948
 30
0.0
  0
VERTEX
  5
259
100
AcDbEntity
  8
0
370
              15
390
0
  6
Continuous
 62
               7
100
AcDbVertex
100
AcDb2dVertex
 10
-3062.1730921590051
 20
1186.286007463948
 30
0.0
  0
SEQEND
  5
25A
100
AcDbEntity
  8
0
370
              15
390
0
  6
Continuous
 62
               7
  0
ENDSEC
  0
SECTION
  2
OBJECTS
  0
DICTIONARY
  5
19
100
AcDbDictionary
280
               0
281
               1
  3
ACAD_GROUP
350
1A
  3
ACAD_MLINESTYLE
350
1B
  3
ACAD_LAYOUT
350
1E
  3
ACAD_PLOTSETTINGS
350
22
  3
ACAD_PLOTSTYLENAME
350
1F
  3
ACAD_WIPEOUT_VARS
350
23
  0
DICTIONARY
  5
1A
102
{ACAD_REACTORS
330
19
102
}
100
AcDbDictionary
280
               0
281
               1
  0
DICTIONARY
  5
1B
102
{ACAD_REACTORS
330
19
102
}
100
AcDbDictionary
280
               0
281
               1
  3
Standard
350
1C
  0
MLINESTYLE
  5
1C
102
{ACAD_REACTORS
330
1B
102
}
100
AcDbMlineStyle
  2
Standard
 70
               0
  3

 62
               0
 51
90.0
 52
90.0
 71
               2
 49
0.5
 62
             256
  6
ByLayer
 49
-0.5
 62
             256
  6
ByLayer
  0
ACDBDICTIONARYWDFLT
  5
1F
102
{ACAD_REACTORS
330
19
102
}
100
AcDbDictionary
281
               1
  3
Normal
350
1D
100
AcDbDictionaryWithDefault
340
1D
  0
ACDBPLACEHOLDER
  5
1D
102
{ACAD_REACTORS
330
1F
102
}
  0
LAYOUT
  5
20
102
{ACAD_REACTORS
330
1E
102
}
100
AcDbPlotSettings
  1

  2

  4

  6

 40
0.0
 41
0.0
 42
0.0
 43
0.0
 44
0.0
 45
0.0
 46
0.0
 47
0.0
 48
0.0
 49
0.0
140
0.0
141
0.0
142
1.0
143
1.0
 70
            1024
 72
               0
 73
               0
 74
               0
  7

 75
               0
147
1.0
148
0.0
149
0.0
100
AcDbLayout
  1
Model
 70
               0
 71
               0
 10
0.0
 20
0.0
 11
0.0
 21
0.0
 12
0.0
 22
0.0
 32
0.0
 14
0.0
 24
0.0
 34
0.0
 15
0.0
 25
0.0
 35
0.0
146
0.0
 13
0.0
 23
0.0
 33
0.0
 16
0.0
 26
0.0
 36
0.0
 17
0.0
 27
0.0
 37
0.0
 76
               0
330
A
331
0
345
0
346
0
  0
LAYOUT
  5
21
102
{ACAD_REACTORS
330
1E
102
}
100
AcDbPlotSettings
  1

  2

  4

  6

 40
0.0
 41
0.0
 42
0.0
 43
0.0
 44
0.0
 45
0.0
 46
0.0
 47
0.0
 48
0.0
 49
0.0
140
0.0
141
0.0
142
1.0
143
1.0
 70
               0
 72
               0
 73
               0
 74
               0
  7

 75
               0
147
1.0
148
0.0
149
0.0
100
AcDbLayout
  1
Layout1
 70
               0
 71
               0
 10
0.0
 20
0.0
 11
0.0
 21
0.0
 12
0.0
 22
0.0
 32
0.0
 14
0.0
 24
0.0
 34
0.0
 15
0.0
 25
0.0
 35
0.0
146
0.0
 13
0.0
 23
0.0
 33
0.0
 16
0.0
 26
0.0
 36
0.0
 17
0.0
 27
0.0
 37
0.0
 76
               0
330
B
331
0
345
0
346
0
  0
DICTIONARY
  5
1E
102
{ACAD_REACTORS
330
19
102
}
100
AcDbDictionary
280
               0
281
               1
  3
Layout1
350
21
  3
Model
350
20
  0
DICTIONARY
  5
22
102
{ACAD_REACTORS
330
19
102
}
100
AcDbDictionary
280
               0
281
               1
  0
WIPEOUTVARIABLES
  5
23
100
AcDbWipeoutVariables
 70
               0
  0
ENDSEC
  0
EOF
